Texas Is The Reason - Do You Know Who You Are Chords & Tabs

 

Do You Know Who You Are Chords & Tabs

Texas Is The Reason Chords & Tabs

Version: 2 Type: Tab 0 ratings
1 star 2 stars 3 stars 4 stars 5 stars
comments

Do You Know Who You Are Tab

This song is an instrumental and is quite simple as long as there are 2
guitarists around, but the first guitars part sounds nice on it's own

Guitar 1 plays throughout

|---------5hp5-------5-----5---------5-----5---------5-----5-------|
|-----6--------6-------6-----6---6-----6-----6---6-----6-----6---6-|
|---5---5--------5-------5-----5---------5-----5---------5-----5---|
|-0----------------0---------------0---------------0---------------|
|------------------------------------------------------------------|
|------------------------------------------------------------------|
[ Tab from: http://www.guitartabs.cc/tabs/t/texas_is_the_reason/do_you_know_who_you_are_tab_ver_2.html ]
Guitar 2 plays
(from about 20 seconds on)
|------------------------------|
|------------------------------|
|------------------------------|
|-4/7-3-4/7-8--7--5-4/7-3-/5\3-|
|-5/8-5-5/8-10-9--7-5/8-5-/7\5-|
|------------------------------|
on the above you can just play the notes on the A string
but I like to play it a bit more bassy


(from about 1 min on)
|---------------------|
|---------------------|
|-----5-----5-----5---|
|---7-----7-----7-----|
|-5-----6-----5-----6-|
|---------------------|

and back to the other riff
|------------------------------|
|------------------------------|
|------------------------------|
|-4/7-3-4/7-8--7--5-4/7-3-/5\3-|
|-5/8-5-5/8-10-9--7-5/8-5-/7\5-|
|------------------------------|

enjoy, it's a nice instrumental song by a great band so go ahead and play.
Comments