Tetley Chris - Turbulent Calm Chords & Tabs

 

Turbulent Calm Chords & Tabs

Tetley Chris Chords & Tabs

Version: 1 Type: Tab 0 ratings
1 star 2 stars 3 stars 4 stars 5 stars
comments

Turbulent Calm Tab

Turbulent calm				Chris Tetley
	
Intro:

Strum the following shapes:   x4

|----------|---------|----------|------------|
|----------|---------|----------|------------|
|---12-----|---7-----|---5------|---2--------|
|---14-----|---9-----|---7------|---4--------|
|----------|---------|----------|------------|
|----------|---------|----------|------------|


			 
Pattern 1    Repeat getting faster x10


|-----0-------0---|-----0-------0---|-----0-------0---|-----0-------0-|
|---------0-------|---------0-------|---------0-------|---------0-----|
|---5---5---5---5-|---5---5---5---5-|---5---5---5---5-|---2---2---2---|
|-7---------------|-6---------------|-5---------------|-4-------------|
|-----------------|-----------------|-----------------|---------------|
|-----------------|-----------------|-----------------|---------------|



Pattern 2    Repeat getting faster x10


|-----0-------0---|-----0-------0---|-----0-------0---|-----0-------0-|
|---------0-------|---------0-------|---------0-------|---------0-----|
|-------0---0---0-|-------0---0---0-|-------0---0---0-|-------0---0---|
|---5-------------|---5-------------|---5-------------|---2-----------|
|-7---------------|-6---------------|-5---------------|-4-------------|
|-----------------|-----------------|-----------------|---------------|



Pattern 3    play twice.
[ Tab from: http://www.guitartabs.cc/tabs/t/tetley_chris/turbulent_calm_tab.html ]
|-----0-------0---|-----0-------0---|-----0-------0---|--------0----|
|---------0-------|---------0-------|---------0-------|------0------|
|---12-12---0---0-|---12-12---0---0-|---12-12---0---0-|----9--------|
|-14--------------|-13--------------|-12--------------|-11----------|
|-----------------|-----------------|-----------------|-------------|
|-----------------|-----------------|-----------------|-------------|


Pattern 3   Play a few times

|-----0------14---|-----0------14---|-----0------14---|-------12----|
|---------0-------|---------0-------|---------0-------|------0------|
|---12-12---0---0-|---12-12---0---0-|---12-12---0---0-|----9--------|
|-14--------------|-13--------------|-12--------------|-11----------|
|-----------------|-----------------|-----------------|-------------|
|-----------------|-----------------|-----------------|-------------|


Pattern 4   Play a few times  before going into the final chord sequence 


|-----0-------7---|-----0-------7---|-----0-------7---|-------3-------|
|---------0-------|---------0-------|---------0-------|-----0---------|
|---5---5---5---5-|---5---5---5---5-|---5---5---5---5-|---2-----------|
|-7---------------|-6---------------|-5---------------|-4-------------|
|-----------------|-----------------|-----------------|---------------|
|-----------------|-----------------|-----------------|---------------|


Final chord sequence …. Coming soon!



Have fun with this, it can be improvised around to great success.
Comments