Testeagles - Just Another Pop Song Chords & Tabs

 

Just Another Pop Song Chords & Tabs

Testeagles Chords & Tabs

Version: 2 Type: Bass Tab 0 ratings
1 star 2 stars 3 stars 4 stars 5 stars
comments

Just Another Pop Song Bass Tab

Testeagles - Just Another Pop Song

Standard Tuning

First Riff

G---------------------------------------------
D--------------1---1-----3--------------------
A--3---3---3-----1---1-3----------------------
E----3---3---3--------------------------------

Followed by

G---------------------------------------------
D---------------------------------------------
A--3--3-3-3--3-3-3-3-6--6-6-6--6-6-6-6--------
E---------------------------------------------

Then

G---------------------------------------------
D---------------------------------------------
A---------------------------------------------
E--4-4-4-4-4-4-4-4-3-3-3-3-3-3-3-3------------

G---------------------------------------------
D---------------------------------------------
A--3-3-3-3-3-3-3-3-3-3-3-3-3-3-3-3------------
E---------------------------------------------

Variation

G---------------------------------------------
D---------------------------------------------
A---------------------------------------------
E--4-4-4-4-4-4-4-4-3-3-3-3-3-3-3-3------------

G---------------------------------------------
D---------------------------------------------
A--3-3-3-3-3-3-3-3-3-3-3--5s6-----------------
E---------------------------------------------
[ Tab from: http://www.guitartabs.cc/tabs/t/testeagles/just_another_pop_song_btab_ver_2.html ]
For the last few minutes the progression changes:

G---------------------------------------------
D---------------------------------------------
A--3-3-3-3-3-3-3-3-3-3-3-3-3-3-3-3------------
E---------------------------------------------

G---------------------------------------------
D---------------------------------------------
A---------------------------------------------
E--4-4-4-4-4-4-4-4-3-3-3-3-3-3-3-3------------

Then it variates after a while:

G---------------------------------------------
D---------------------------------------------
A--3-3-3-3-3-3-3-3-3---3---3-5-6--------------
E--------------------3---3--------------------

G---------------------------------------------
D---------------------------------------------
A---------------------------------------------
E--4-4-4-4-4-4-4-4-3-3-3-3-3-3-3-3------------

Then for the last bit it changes again:

G---------------------------------------------
D---------------------------------------------
A--3-3--3-3--3-3--3-3--3-3--3-----------------
E---------------------------------------------

G---------------------------------------------
D------6------------5-------------------------
A----6-----6------5-----5---------------------
E--4-----4---4--3-----3---3-------------------

Tab by James Beecroft
beecroft@iinet.net.au
Comments