Testeagles - Hammerdrill Chords & Tabs

 

Hammerdrill Chords & Tabs

Testeagles Chords & Tabs

Version: 1 Type: Bass Tab 0 ratings
1 star 2 stars 3 stars 4 stars 5 stars
comments

Hammerdrill Bass Tab

Testeagles - Hammerdrill
Dropped D tuning.

Opening Riff

G--------------------------------------------------------
D--------------------------------------------------------
A---------6----------------------------------------------
D--0-0-0-------------------------------------------------

Then...

G-------------------------------------------------------
D---------------------4-0-------------------------------
A-------6-6------6-6------------------------------------
D--0-0-------0-0----------------------------------------

Main Riff

G-------------------------------------------------------
D--------------------4-0--------------------------------
A------6---------6--------------------------------------
D--0-0-------0-0----------------------------------------


Then chorus bit
[ Tab from: http://www.guitartabs.cc/tabs/t/testeagles/hammerdrill_btab.html ]
G--------------------------------------------------------
D--------------------------------------------------------
A----1-0----1-0------------------------------------------
D--0------0------0-3-4-----------------------------------
(back to main riff)

Variation on chorus bit

G--------------------------------------------------------
D--------------------------------------------------------
A------1-0-------1-0-------------------------------------
D--0-0------0-0-------0-3-4------------------------------

Bridge to solo

G--------------------------------------------------------
D--------------------------------------------------------
A----6----6----------------------------------------------
D--0----0------------------------------------------------

Then...

G--------------------------------------------------------
D--------------------------------------------------------
A--------------------------------------------------------
D--3-3-4--0-0-0-3-4--------------------------------------

Play the chorus bit during the solo

That's all the riffs in the song
just listen to it to figure out where they go.

Tab by James Beecroft.

Comments