Testeagles - Clone Chords & Tabs

 

Clone Chords & Tabs

Testeagles Chords & Tabs

Version: 1 Type: Bass Tab 0 ratings
1 star 2 stars 3 stars 4 stars 5 stars
comments

Clone Bass Tab

Testeagles - Clone

Intro

G-------------------------
D-------------------------
A-------------------------
D--0-0--------------------

Main

G-----------------------------------------------
D-----------------------------------------------
A----6-5-----------6-5--------------------------
D--0------8-7---0-------8-7---------------------

Verse 1

G---------------------------------8-7------------------------------
D-------7-8----------8-7------8-7-----8-7----------------8-7-8-----
A--5---------5---6-5------6-5-------------6-5--------5-6-------6-5-
D----------------------------------------------8-7-8---------------

Back to main

Main Variation

G-----------------------------------------------
D-----------------------------------------------
A----6-5-----------6-5--------------------------
D--0------8-7---0-------8-7-0-7-8-5-------------

Verse 2
[ Tab from: http://www.guitartabs.cc/tabs/t/testeagles/clone_btab.html ]
G---------------------------------8-7------------------------------
D-------7-8----------8-7------8-7-----8-7----------------8-7-8-----
A--5---------5---6-5------6-5-------------6-5--------5-6-------6-5-
D----------------------------------------------8-7-8---------------


G------------------------------------------------------------------
D--8-7-------------------------------------------------------------
A-------6-5--------------------------------------------------------
D------------------------------------------------------------------

Interlude

G------------------------------------------------------------------
D------------------------------------------------------------------
A----5-6------5-6--------------------------------------------------
D--0-----7--0-----8------------------------------------------------

Variation

G------------------------------------------------------------------
D------------------------------------------------------------------
A----5-6------5-6----8-8-8-----------------------------------------
D--0-----7--0-----8------------------------------------------------

that's everything
listen to the song to figure out the order

Tab By James Beecroft
beecroft@iinet.net.au

Comments