Testament - The Ballad The First Solo Chords & Tabs

 

The Ballad The First Solo Chords & Tabs

Testament Chords & Tabs

Version: 1 Type: Tab 0 ratings
1 star 2 stars 3 stars 4 stars 5 stars
comments

The Ballad The First Solo Tab

  here is the solo to

         TESTMENT's- The Ballad  



----------------------------------------------------------------------
----------------------------------------2-5-4-2------------------------
--------------------1-3-4-3~-----1-----3-------4-3-1------------------------
--4-----------1-2-4----------2----4---4--------------3~1------------------------
-----4---1h2h4-----------------------------------------------------------
----------------------------------------------------------------------
[ Tab from: http://www.guitartabs.cc/tabs/t/testament/the_ballad_the_first_solo_tab.html ]
------------------------------9-7-6-------------------------------------
------------------------4-5-7------9-7-55--7-5h7---4h5h42-----------------------------
------------------3-4-6-----------------------------------431--------------
--2-2~6-4---2-4-6--------------------------------------------421-----------------
----------------------------------------------------------------421-----
-------------------------------------------------------------------42---
                                                               -harm-
--11-12-11-9------------------------------------------------------12-----------
------------12-11-9-11-12-11-9----------------------------------12-----------------------
------------------------------11-9-8-9-11-9-8----------------------------------
---------------------------------------------11-9-8-9-11-9-8-------------------
-------------------------------------------------------------11---------
----------------------------------------------------------------------



















Comments