Testament - The Ballad 2nd Part Of Solo Chords & Tabs

 

The Ballad 2nd Part Of Solo Chords & Tabs

Testament Chords & Tabs

Version: 1 Type: Tab 0 ratings
1 star 2 stars 3 stars 4 stars 5 stars
comments

The Ballad 2nd Part Of Solo Tab

    here it is TESTAMENT-The Ballad- 2nd part of solo


 
-0-4-6-7-6-4----------18bend-18-18~---18-14-----------------------------------------------
-------------5~7-5~7-----------------------17-14--------------------------------
------------------------------------------------16-15--------------------
-----------------------------------------------------16-14~13-------------
---------------------------------------------------------------------
---------------------------------------------------------------------


------------------------------------14--16-14-18-16-14---------------------------
---------------------14--16-14-17-16--17--------------17-16-14-------------------------
------13--15-13-16-15--16-------------------------------------16-15-13----------------
-16-14--16-----------------------------------------------------------------
---------------------------------------------------------------------
---------------------------------------------------------------------

[ Tab from: http://www.guitartabs.cc/tabs/t/testament/the_ballad_2nd_part_of_solo_tab.html ]
-
------------------------------12---------------------------------------
-------------------------14-16--16bend-----------------------------------------
-16-15~13--------13-15-16-------------x15bend13--------------------------------------------
------------14-16------------------------------16---------13-14-16---------------
--------------------------------------------------13-14-16-----------------
---------------------------------------------------------------------

---------------------------------------------------------------------
---------------------------------------------------------------------
-----------------------------------11~13--9--9~11-11----------------------------
-13-14-11-13-----------------------------------------------------------------
------------13-14-11----------------9~11--7--7~9---9--------------------------------
--------------------18-14-16-14-14-----------------------------------


---2-0-0p2---------------------------------------------------------------
--------------------------------------------------------------------
--------------------------------------------------------------------
-----------------10-9-7-------------------------------------------------
------------------------10-9-7------------------------------------------
-------------------------------10-7------------------------------------
Comments