Testament - Return To Serenity Solo Chords & Tabs

 

Return To Serenity Solo Chords & Tabs

Testament Chords & Tabs

Version: 1 Type: Tab 0 ratings
1 star 2 stars 3 stars 4 stars 5 stars
comments

Return To Serenity Solo Tab

Testament

Return to serenity 

Solo Guitar
                                                  
E||------|------|--------------------------------|
B||------|------|--12----------------------------|
G||------|------|--------------14/-12------------|
D||------|------|--------------------------------|
A||------|------|--------------------------------|
E||------|------|--------------------------------|


                                                                                
--------------------------------------|----------------12----------------------|
--------------------------------------|------------15--------------------------|
--14--------12/-11------------12--14--|--16----------------14r-12------11--12--|
--------------------14----------------|----------------------------------------|
--------------------------------------|----------------------------------------|
--------------------------------------|----------------------------------------|


                                                             
------------------------------------------------------------|
--14h15h14h12/10h12h10/8h10h8/7h8h7-------------------------|
------------------------------------9h7/6h7h9h7h6-----------|
--------------------------------------------------9h7-5---5-|
--------------------------------------------------------9---|
------------------------------------------------------------|


                                   
----------------------------------|
----------------------------------|
----------------------------------|
----------------------------------|
--9r-7----------------------------|
------------10--7--3--------2--3--|


                                                                               
------------------------------------------------------------------------------|
----------------------------------------------------------7-8-7-----------7-8/|
------------------------------------6-7-6-7-6-------6-7-9-------9-7---7-9-----|
------------4-5-7-5-4-------4-5-7-9-----------9-7-9-----------------9---------|
------4-5-7-----------7-5-7---------------------------------------------------|
--5-7-------------------------------------------------------------------------|


                                                                              
-----------------------------------|-----------------------------------------|
--10--------8--7--8-7--------------|-----------------------------------------|
----------------------9------7/-4--|-----------------------------------------|
-----------------------------------|--7--------5/-4--5-7-5-4-----------4-5-4-|
-----------------------------------|-------------------------7-5-4-5-7-------|
-----------------------------------|-----------------------------------------|


                                                   
--------------------------------------------------|
--------------------------------------------------|
--------------------------------------------------|
--5-4---------5-4---------5-4---------5-4---------|
------7-5---5-----7-5---5-----7-5---5-----7-5---5-|
----------7-----------7-----------7-----------7---|


                                       
--------------------------------------|
--------------------------------------|
--------------------------------4-6---|
--------4-----4-5---4-5-7-4-5-7-----7-|
--4-5-7---5-7-----7-------------------|
--------------------------------------|


                                                                                
-----------------------------------------------12-------12-------12-------12----
--------------------------------------12-14-15----12-15----12-15----12-15----12-
----6-7-6-7-9-7-9-11-9-11-12-11-12-14-------------------------------------------
--9-----------------------------------------------------------------------------
--------------------------------------------------------------------------------
--------------------------------------------------------------------------------


                                           
------------------------------------------|
--15b---15b---15--12--15~---15b---12--15--|
------------------------------------------|
------------------------------------------|
------------------------------------------|
------------------------------------------|


                                       
--------------------------------------|
--15b-------15--12--15b-------12--15--|
--------------------------------------|
--------------------------------------|
--------------------------------------|
--------------------------------------|


                                               
----------------------------------------------|
--15b-----15b-12--15--15b-12--15--15b-12--15--|
----------------------------------------------|
----------------------------------------------|
----------------------------------------------|
----------------------------------------------|

[ Tab from: http://www.guitartabs.cc/tabs/t/testament/return_to_serenity_solo_tab.html ]
                                                                                
--15-14-12-15-14-12----14-12----------------12-15-14-12-------------------------
--------------------15-------15-13-12-13-15-------------15-13-12-------------12-
-----------------------------------------------------------------14-12-11-14----
--------------------------------------------------------------------------------
--------------------------------------------------------------------------------
--------------------------------------------------------------------------------


                                             
--15b---15~---------------15--15b---15--17--|
--------------17--12--17--------------------|
--------------------------------------------|
--------------------------------------------|
--------------------------------------------|
--------------------------------------------|


                                                                              
--17r-15----17r-15----17r-15-------17r-15-------17r-15-------17r-15-------19-|
---------17--------17--------17-15--------17-15--------17-15--------17-15----|
-----------------------------------------------------------------------------|
-----------------------------------------------------------------------------|
-----------------------------------------------------------------------------|
-----------------------------------------------------------------------------|


                                                 
--19b-----19-18-17-16-15------------------------|
-------------------------17-15----15-17r--------|
-------------------------------16---------------|
------------------------------------------------|
------------------------------------------------|
------------------------------------------------|


                                                   
------15--15----------17----------19----------22--|
--17------17--17/-19------19/-20------20/-24------|
--------------------------------------------------|
--------------------------------------------------|
--------------------------------------------------|
--------------------------------------------------|


                                                                                
--22b-------22--19--22----22b---19--22--|--22b-------22--19--22b-----------12--|
----------------------------------------|------------------------------14------|
----------------------------------------|--------------------------------------|
----------------------------------------|--------------------------------------|
----------------------------------------|--------------------------------------|
----------------------------------------|--------------------------------------|


                                                   
--15------12--15------12--15------12--15------12--|
------14----------14----------14----------14------|
--------------------------------------------------|
--------------------------------------------------|
--------------------------------------------------|
--------------------------------------------------|


                                                                     
--15------12--15-14-12-15-14-12----14-12-------12-------------------|
------13------------------------15-------15-13----15-13-12----------|
-----------------------------------------------------------14-12----|
-----------------------------------------------------------------14-|
--------------------------------------------------------------------|
--------------------------------------------------------------------|


                                                                           
--------------------------------------------------------------------------|
--------------------------------------------------------------------------|
--12-14-12----------12-14-12----------12-14-12----------12-14-12----------|
-----------14-12-------------14-12-------------14-12-------------14-12----|
-----------------14----------------14----------------14----------------14-|
--------------------------------------------------------------------------|


                                                                           
--------------------------------------------------------------------------|
--------------------------------------------------------------------------|
--12-14-12----------12-14-12----------12-14-12----------12-14-12----------|
-----------14-12-------------14-12-------------14-12-------------14-12----|
-----------------15----------------15----------------15----------------15-|
--------------------------------------------------------------------------|


                                                                           
--------------------------------------------------------------------------|
--------------------------------------------------------------------------|
--12-14-12----------12-14-12----------12-14-12----------------------12/14-|
-----------14-12-------------14-12-------------14-12----------12-14-------|
-----------------16----------------16----------------14-12-14-------------|
--------------------------------------------------------------------------|


                                                                            
-----------15-14-----------------------------------------------------------|
-----15-17-------17-15-13--------------------------------------------------|
--16----------------------16-14/12/11/12-14-12-11------------------9-12-11-|
--------------------------------------------------14-12-10-9-10-12---------|
---------------------------------------------------------------------------|
---------------------------------------------------------------------------|


                                        
-------------------|------------------||
-------------------|------------------||
--9~---------------|------------------||
-------------------|------------------||
-------------------|------------------||
-------------------|------------------||


Comments