Testament - Raging Waters Chords & Tabs

 

Raging Waters Chords & Tabs

Testament Chords & Tabs

Version: 1 Type: Tab 0 ratings
1 star 2 stars 3 stars 4 stars 5 stars
comments

Raging Waters Tab

   
         Title : RAGING WATERS
         Album : The Legacy
Transcribed by : Jarle Hille Olsen


Legend
------

 h  = hammer-on
 p  = pull-off
 b  = bend
 r  = bend release
 /  = slide up/down
<5> = natural harmonic
[5] = artifical harmonic
 ~  = vibrato
 tr = trill



   Rhy. Fig. 1 (Gtr.1)                                                Gtr.2

E|-----------------------------------------------------------------||---
B|----------------------------------------------------------------*||---
G|-9-------------9-------9/10-10----10--\7--7/9--------------------||-9-
D|-9-------------9-------9/10-10-----------------------------------||-9-
A|-7-------5-6-7-7-------7/-8--8-----8--\5--5/7-------------------*||-7-
E|-----------------------------------------------------------------||---


E|----------------------------------------8----------------------<12>----
B|-------------------------------------10----10---/12-------<12>---------
G|-------------9------7/9--9/10-10--10-----------------<12>--------------
D|-------------9---------------------------------------------------------
A|-------5-6-7-7--5-5-5/7--7/-8--8---------------------------------------
E|-----------------------------------------------------------------------
                                    Rake

E|----------------------------------------------------8----------------
B|------------------<7>--------------<7>-----------10----10--/12-------
G|-------9--<5>-<5>--------------<5>-----<7>----10----------------<12>-
D|-------9-------------------------------<7>---------------------------
A|-------7-------------------------------------------------------------
E|---------------------------------------------------------------------
                                                Rake


                     Rhy. Fig. 2 (Gtr.1&2)

E|------<12>--*|-||----------------------------------------------------
B|-<12>-------*|-||*---------------------------------------------------
G|------------*|-||----------------------------------------------------
D|------------*|-||---9---------------------------------------------9--
A|------------*|-||*--7---------------------------7-7-7-7-10-7----7-7--
E|------------*|-||---0--0--0-0-0--0-0-0--0-0-0-0--------------10---0--



                                              Gtr.1 starts Rhy. Fig. 3

E|-------------------------------------||-||---------------------------
B|------------------------------------*||-||*--------------------------
G|--------------------------------10---||-||---------------------------
D|-------------10\9-9-------------10---||-||---2-----------------------
A|--------------8\7-7--------------8--*||-||*--2-----------------------
E|-0--0-0-0-0-------0--0--0-0-0-0------||-||---0-0-0-0-0-0-0-0-0-0-0-0-


E|----------------------------------------------------------------------
B|----------------------------------------------------------------------
G|----------------------------------------------------------------------
D|---------5---------------4--------------2-----------------------------
A|---------5---------------4--------------2-----------------------------
E|-0-0-0-0-3-3-3-3-3-3-3-3-2-2-2-2-5p4-0--0-0-0-0-0-0-0-0-0-0-0-0-0-0-0-



                                               Rhy. Fig. 4 (Gtr.1&2)

E|--------------------------------------||-||---------------------------
B|-------------------------------------*||-||*--------------------------
G|--------------------------------------||-||---------------------------
D|---5---------------7------------------||-||---9-----------------------
A|---5---------------7---------------5\*||-||*--7-----------------------
E|-0-3-3-3-3-3-3-3-3-5-5-5-5-5-5-5-5----||-||---0-0-0-0-0-0-0-0-0-0-0-0-


E|---------------------------------------------------------------------
B|---------------------------------------------------------------------
G|---------------------------------------------------------------------
D|-------------------------8--8--9-------------------------------------
A|-------------------------6--6--7-------------------------------------
E|-0-0-0-0-0-0-0-0-0-0-0-0-6--6--0-0-0-0-0-0-0-0-0-0-0-0-0-0-0-0-0-0-0-


E|---------------------------------------------------------------------
B|---------------------------------------------------------------------
G|---------------------------------------------------------------------
D|-----------8--8-8--9-----------------------------------------------8-
A|-----------6--6-6--7-----------------------------------------------6-
E|-0-0-0-0-0----6-6--0-0-0-0-0-0-0-0-0-0-0-0-0-0-0-0-0-0-0-0-0-0-0-0-6-


E|----------------------------------------------------------------------
B|----------------------------------------------------------------------
G|-----------------------------------------------------10--\9-9---------
D|--8--9------------------------------------------------8--\7-7-------8-
A|--6--7-----------------------------------------------------------7--6-
E|--6--0-0-0-0-0-0-0-0-0-0-0-0-0-0-0-0-0-0-0-0-0-0-0-0-------------5--6-



               Rhy. Fig. 5 (Gtr.1&2)

E|------||-||-----------------------------------------------------------
B|-----*||-||*----------------------------------------------------------
G|------||-||-----------------------------------------------------------
D|--8---||-||---------------------9-----7-----------------------9-----7-
A|--6--*||-||*--5-------5h7-------7--9--5--8--5-------5h7-------7--9--5-
E|--6---||-||-----0-0-0-----0-0-0----7-----6----0-0-0-----0-0-0----7----



            At end      Bridge (Gtr.1&2)

E|-------||------*|-||-------------------------------------------------
B|------*||------*|-||*------------------------------------------------
G|-------||--9-x-*|-||-------------------------------------------------
D|--10---||--9-x-*|-||-------------------------------------------------
A|---8--*||--7-x-*|-||*-7-7-7-7-7-7-7-7-7--5--7--5--7~-7-7-7-7-7--5--7-
E|-------||--0-x-*|-||--0-0-0-0-0-0-0-0-0--0--0--0-----0-0-0-0-0--0--0-



                                                     Gtr.1
[ Tab from: http://www.guitartabs.cc/tabs/t/testament/raging_waters_tab.html ]
E|------------------------------------------------||-------------------
B|-----------------------------------------------*||-------------------
G|------------------------------------------------||-------------------
D|------------------------------------------------||-------------------
A|--5--7~-7-7-7-7-7--5--7--5--7~-7-7-7-7---5-8~--*||-7~-----7-5-7-5-7~-
E|--0-----0-0-0-0-0--0--0--0-----0-0-0-0-6--------||----0-0------------



                                              Gtr.2

E|-----------------------------------------*|---------------------------
B|-----------------------------------------*|---------------------------
G|-----------------------------------------*|---------------------------
D|-----------------------------------------*|-5~-----5-4-5-4-5~-----5-4-
A|-----7-5-7-8-7~-----7-5-7-9-7--------5-8-*|---------------------------
E|-0-0------------0-0------------0-0-6-----*|----0-0------------0-0-----



                                           Rhy. Fig. 6 (Gtr.1&2)

E|----------------------------------*|-||-------------------------------
B|----------------------------------*|-||*------------------------------
G|----------------------------------*|-||-------------------------------
D|-5-7-5~-----5-4-5-7-5~------------*|-||-------------------------------
A|-----------------------------5-8--*|-||*--0-0-0-0-0-0-0-0-0-0-0-0-0-0-
E|--------0-0------------0-0-6------*|-||-------------------------------


E|----------------------------------------------------------------------
B|----------------------------------------------------------------------
G|----------------------------------------------------------------------
D|-5------------------------------7-7-----------------------------5-----
A|-3--0-0-0-0-0-0-0-0-0-0-0-0-0-0-5-5-0-0-0-0-0-0-0-0-0-0-0-0-0-0-3-0-0-
E|----------------------------------------------------------------------



                            Guitar solo

E|-----------------------||-19-17-15-17-15-14-15-14-12-------------------
B|----------------------*||----------------------------19-17-15-17-15-13-
G|-------------------8---||----------------------------------------------
D|-------------7p5---8---||----------------------------------------------
A|-0-0-0-0-0-0-----7----*||----------------------------------------------
E|-----------------------||----------------------------------------------


E|---------------------------------------------------------------------
B|-15-13-12-13p12-10-------------13-12-10-12-10-8-10-8-7-8-7-5---------
G|-------------------11-11h12-14-------------------------------7p5-4---
D|-------------------------------------------------------------------7p
A|---------------------------------------------------------------------
E|---------------------------------------------------------------------


E|-----------7----------------------------------------------------------
B|-------------8--------------------------------------------------------
G|---------------9-------------------------------------------------9-11-
D|-5-4-------------9~-9-10-9-7---------9~---------9-10-12-10-12-14------
A|-----5p3-2-------------------10-9-10----9-10-12-----------------------
E|----------------------------------------------------------------------


E|----------------------------------------------17-------17----17-------
B|-------------------12-------12---------/19-20----20b22----17----20b22-
G|-12-11-12-14-14b16----14b16----14b16----------------------------------
D|----------------------------------------------------------------------
A|----------------------------------------------------------------------
E|----------------------------------------------------------------------


E|-17----17-------17----17-22---12h14-14-14-14-14-14-14-15-14-12-------
B|----17----20b22----17------------------------------------------15-13-
G|---------------------------------------------------------------------
D|---------------------------------------------------------------------
A|---------------------------------------------------------------------
E|---------------------------------------------------------------------


E|----------------------------------------------------------------------
B|-12-------------------------------------------------------------------
G|----14-12-11----------------------------------------------------------
D|-------------14-12-10-------------------------------------------------
A|----------------------14p12-10--------------12-10-9-14-12-10-15-14-12-
E|-------------------------------12~-15-14-12---------------------------


E|---------------------------------------------------------------------
B|-----------------------------------------------12p15-13-12--------13p
G|-------------------14b16---r-p12-14b16------12-----------------16----
D|-12-10-9-14-12-10------------------------14-----------------17-------
A|---------------------------------------------------------------------
E|---------------------------------------------------------------------
                                           Rakes

E|-------------------------------------------------------14p17-15-14----
B|-17-15-13--------15p19-17-15--------17p20-19-17-----15----------------
G|--------------17-----------------19--------------16-------------------
D|-----------19-----------------21-----------------------------------14h
A|----------------------------------------------------------------------
E|----------------------------------------------------------------------


E|--------15h19-15------------------15h19-15---------------15h17b17----
B|------x----------x--------------x----------x-----------x-------------
G|----x--------------x----------x--------------x-------x---------------
D|-17------------------14-14h17------------------14h17-----------------
A|---------------------------------------------------------------------
E|---------------------------------------------------------------------



              Bridge2

E|---------*|-----------------------------------------------------------
B|---------*|-----------------------------------------------------------
G|---------*|-----------------------------------------------------------
D|---------*|-9--9-9-------9---7---9--9-9-------9---7-10-9--9-9-------9-
A|---------*|-7--7-7-------7-9-5-8-7--7-7-------7-9-5--8-7--7-7-------7-
E|---------*|-0------0-0-0---7---6-0------0-0-0---7------0------0-0-0---


E|-------------------------*|-
B|-------------------------*|-
G|-------------------------*|-
D|---7---9--9-9-------9-x--*|-
A|-9-5-8-7--7-7-------7-x--*|-
E|-7---6-0------0-0-0-0-x--*|-
Comments