Testament - One Mans Fate Chords & Tabs

 

One Mans Fate Chords & Tabs

Testament Chords & Tabs

Version: 1 Type: Tab 0 ratings
1 star 2 stars 3 stars 4 stars 5 stars
comments

One Mans Fate Tab

Artist:TestAmenT
Title:One Man's Fate
Album:Souls of Black
Transcribed by:Eric Vanover
Email:evanover3@hotmail.com

.-palm mute
qb-quarter bend
T.H.-tap harmonic


    Gtr.1 Fade In                 Gtr.2 Fade In                     
E------------------------------|-----------------------------|------
B------------------------------|-----------------------------|------
G------------------------------|-----------------------------|------
D---------------------------5--|-----------------------6--5--|------
A---------------------5--8-----|--5--------------5--8--------|------
E---6--------------6-----------|-----------------------------|------
                                                                    

    Both Gtrs.                             Gtr.1          Gtr.2     
E---------------------------------------|--------------|------------
B---------------------------------------|--------------|------------
G---------------------------------------|--------------|------------
D---------5--8--4--7--3--6--2--2--------|-----------5--|------------
A---------------------------------------|-----5--8-----|--5--8------
E---0--0--------------------------0--0--|--6-----------|------------
    .  .                          .  .  .  .              .         

             Both Gtrs.                                             
E---------|--------------------------------------|------------------
B---------|--------------------------------------|------------------
G---------|--------------------------5-----------|------------------
D---6--5--|--------5--8--4--7--2--3--------------|------------------
A---------|--------------------------------------|------------------
E---------|--0--0-----------------------0--0--0--|------------------
             .  .                       .  .  .                     

    Repeat Various                                                  
E---------------------|---------------------------------------------
B---------------------|---------------------------------------------
G---------------------|---------------------------------------------
D---------------------|---------------------------------------------
A---------------------|--------5-----------7------------------------
E---------------------|--6-----------5-----------0-----0--0--0------
                         .                       .     .  .  .      

                                                                    
E-------------------------------------------------------------------
B-------------------------------------------------------------------
G-------------------------------------------------------------------
D---------5--8--4--7------------------------------------------------
A---------------------------------------------5-----------7---------
E---0--------------------0-----0--0--0-----6-----------5------------
    .                    .     .  .  .     .           .            

                                  qb           Gtr.1                
E-------------------------------------------|-----------------|-----
B-------------------------------------------|-----------------|-----
G-------------------------------------------|-----------------|-----
D-------------------------------------------|-----------------|-----
A-------------------------------------------|-----------------|-----
E---0-----0--0--0-----0-----0-----3^-----0--|--6p5--6p5--6p5--|-----
    .     .  .  .     .                  .                          

    Gtr.2                                                           
E------------------|------------------------------------------------
B------------------|------------------------------------------------
G------------------|------------------------------------------------
D------------------|-----------------------------------------5------
A---5p4--5p4--5p4--|-----7------------------------------------------
E------------------|--5--------0-----0-----0--0--0-----0------------
                      .        .     .     .  .  .     .     .      

                                                                    
E-------------------------------------------------------------------
B-------------------------------------------------------------------
G-------------------------------------------------------------------
D---8--4--7---------------------------------------------------------
A---------------------------------------5--------------7------------
E---------------0-----0--0--0-----6--------------5-----------0------
                .     .  .  .     .              .           .      

                                                                    
E-------------------------------------------------------------------
B-------------------------------------------------------------------
G-------------------------------------------------------------------
D-------------------------------------------------------------------
A------------------------------5-----------7-----6-----5------------
E------0--0--0-----0-----6-----------6-----------------------6------
       .  .  .     .     .           .     .     .     .     .      

                               Gtr.1                  Gtr.2         
E---------------------------|----------------------|----------------
B---------------------------|----------------------|----------------
G---------------------------|----------------------|----------------
D---------------------------|----------------------|----------------
A---------------------------|----------------------|--3h4--3p1------
E------5-----3-----5-----3--|--5h6--5h6--5h6--3p0--|----------------
       .     .     .     .                                          

                                                                    
E-------------|-----------------------------------------------------
B-------------|-----------------------------------------------------
G-------------|-----------------------------------------------------
D-------------|--2--------2-----2-----------------------------------
A---3p1--0h2--|--2--------2-----2--------/--4-----2-----/--4--------
E-------------|--0--0--0--0--0--0--0--0--/--5-----3--0--/--5--------
                    .  .     .     .  .              .              

                                                                    
E-------------------------------------------------------------------
B-------------------------------------------------------------------
G-------------------------------------------------------------------
D-----------2--------2-----------------2-----7-----7--/--8--7--\----
A---2-------2--------2--------/--4-----2-----7-----7--/--8--7--\----
E---3p0-----0--0--0--0--0--0--/--5-----0--0--5--0--5--/--6--5--\----
               .  .     .  .              .     .                   

                                                                    
E---|---------------------------------------------------------------
B---|---------------------------------------------------------------
G---|---------------------------------------------------------------
D---|--2--------2-----2----------------------------------------2----
A---|--2--------2-----2--------/--4-----2-----/--4-----2-------2----
E---|--0--0--0--0--0--0--0--0--/--5-----3--0--/--5-----3p0-----0----
          .  .     .     .  .              .                        

                                                                    
E---------------------------------------|---------------------------
B---------------------------------------|---------------------------
G---------------------------------------|---------------------------
D---------2-----------------2-----------|--2--------2-----2---------
A---------2--------/--4-----2-----------|--2--------2-----2---------
E---0--0--0--0--0--/--5-----0-----------|--0--0--0--0--0--0--0------
    .  .     .  .                             .  .     .     .      

                                                                    
E-------------------------------------------------------------------
B-------------------------------------------------------------------
G-------------------------------------------------------------------
D--------------------------------------2--------2-------------------
A------/--4-----2-----/--4-----2-------2--------2--------/--4-------
E---0--/--5-----3--0--/--5-----3p0-----0--0--0--0--0--0--/--5-------
    .              .                      .  .     .  .             

                                                                    
E-------------------------------------------------------------------
B-------------------------------------------------------------------
G-------------------------------------------------------------------
D---2-----7-----7--/--8--7--\-----2--------2-----2------------------
A---2-----7-----7--/--8--7--\-----2--------2-----2--------/--4------
E---0--0--5--0--5--/--6--5--\-----0--0--0--0--0--0--0--0--/--5------
       .     .                       .  .     .     .  .            

                                                                    
E-------------------------------------------------------------------
B-------------------------------------------------------------------
G-------------------------------------------------------------------
D-----------------------------2--------2--------/--8-----------8----
A------2-----/--4-----2-------2--------2----------------------------
E------3--0--/--5-----3p0-----0--0--0--0--0--0--/--6-----6--6--6----
          .                      .  .     .  .           .  .       

                                                                    
E---------------------------|---------------------------------------
B---------------------------|---------------------------------------
G---------------------------|---------------------------------------
D---\--7--7--\--5--5--/--7--|--2--------2-----2---------------------
A---------------------------|--2--------2-----2--------/--4---------
E---\--5--5--\--3--3--/--5--|--0--0--0--0--0--0--0--0--/--5---------
                                  .  .     .     .  .               

                                                                    
E-------------------------------------------------------------------
B-------------------------------------------------------------------
G-------------------------------------------------------------------
D--------------------------2--------2-----------------2-----7-------
A---2-----/--4-----2-------2--------2--------/--4-----2-----7-------
E---3--0--/--5-----3p0-----0--0--0--0--0--0--/--5-----0--0--5--0----
       .                      .  .     .  .              .     .    

                                                                    
E-------------------------------------------------------------------
B-------------------------------------------------------------------
G-------------------------------------------------------------------
D---7--/--8--7--\-----2--------2-----2------------------------------
A---7--/--8--7--\-----2--------2-----2--------/--4-----2-----/------
E---5--/--6--5--\-----0--0--0--0--0--0--0--0--/--5-----3--0--/------
                         .  .     .     .  .              .         

                                                                    
E-----------------------------------------------|-------------------
B-----------------------------------------------|-------------------
G-----------------------------------------------|-------------------
D-----------------2--------2-----------------2--|--2-----------/----
A---4-----2-------2--------2--------/--4-----2--|--2-----------/----
E---5-----3p0-----0--0--0--0--0--0--/--5-----0--|--0--0--0--0--/----
                     .  .     .  .                    .  .  .       

                                                                    
E-------------------------------------------------------------------
B-------------------------------------------------------------------
G-------------------------------------------------------------------
D---4-----------4-----4--/--5--4--\-----------------/--5------------
A---4-----------4-----4--/--5--4--\-----------------/--5------------
E---2--------0--2--0--2--/--3--2--\-----0--0-----0--/--3-----0------
             .     .                    .  .     .           .      

                                                                    
E-------------------------------------------------------------------
B-------------------------------------------------------------------
G-------------------------------------------------------------------
D---5-----/--7--5--\-----------------/--4--------4-----4--/--5------
A---5--------------------------------/--4--------4-----4--/--5------
E---3--0--/--5--3--\-----0--0--0--0--/--2-----0--2--0--2--/--3------
       .                 .  .  .  .           .     .               

                                                                    
E-------------------------------------------------------------------
B-------------------------------------------------------------------
G-------------------------------------------------------------------
D---4--\-----------------/--5-----------5-----7--------5------------
A---4--\-----------------/--5-----------5-----7--------5------------
E---2--\-----0--0-----0--/--3--------0--3--0--5--------3--3--3------
             .  .     .              .     .              .  .      

          Repeat Various                                            
E------|-----------------|------------------------------------------
B------|-----------------|------------------------------------------
G------|-----------------|------------------------------------------
D------|-----------------|--2-----------/--4-----------4-----4------
A------|-----------------|--2-----------/--4-----------4-----4------
E---3--|-----------------|--0--0--0--0--/--2--------0--2--0--2------
    .                          .  .  .              .     .         

                                                                    
E-------------------------------------------------------------------
B-------------------------------------------------------------------
G-------------------------------------------------------------------
D---/--5--4--\-----------------/--5--------5-----/--7--5--\---------
A---/--5--4--\-----------------/--5--------5------------------------
E---/--3--2--\-----0--0-----0--/--3-----0--3--0--/--5--3--\---------
                   .  .     .           .     .                     

                                                                    
E-------------------------------------------------------------------
B-------------------------------------------------------------------
G-------------------------------------------------------------------
D---------------/--4--------4-----4--/--5--4--\---------------------
A---------------/--4--------4-----4--/--5--4--\---------------------
E---0--0--0--0--/--2-----0--2--0--2--/--3--2--\-----0--0-----0------
    .  .  .  .           .     .                    .  .     .      

                                                                    
E------------------------------------------------------|------------
B------------------------------------------------------|------------
G------------------------------------------------------|------------
D---/--5-----------5-----/--7-----5-----/--7-----5--\--|--2---------
A---/--5-----------5-----------------------------------|--2---------
E---/--3--------0--3--0--/--5-----3--0--/--5-----3--\--|--0--0------
                .     .              .                       .      

                                                                    
E-------------------------------------------------------------------
B-------------------------------------------------------------------
G-------------------------------------------------------------------
D------5--\--4--------/--7-----5-----/--7-----5--\-----2------------
A------5--\--4-----------------------------------------2------------
E---0--3--\--2--0--0--/--5-----3--0--/--5-----3--\-----0--0--0------
    .           .  .              .                       .  .      

                                                                    
E-------------------------------------------------------------------
B-------------------------------------------------------------------
G-------------------------------------------------------------------
D---5--\--4--------/--7-----5-----/--7-----5--\-----2--------5------
A---5--\--4-----------------------------------------2--------5------
E---3--\--2--0--0--/--5-----3--0--/--5-----3--\-----0--0--0--3------
             .  .              .                       .  .         

                                                                    
E-------------------------------------------------------------------
B-------------------------------------------------------------------
G-------------------------------------------------------------------
D---\--4--------/--7-----5-----/--7-----5--\-----2--------5--\------
A---\--4-----------------------------------------2--------5--\------
E---\--2--0--0--/--5-----3--0--/--5-----3--\-----0--0--0--3--\------
          .  .              .                       .  .            

                                                                    
E------------------------------------------------|------------------
B------------------------------------------------|------------------
G------------------------------------------------|------------------
D---4--------8--------8--\--7--7--\--5--5--/--7--|------------------
A---4--------8--------8--\--7--7--\--5--5--/--7--|------------------
E---2--0--0--6--6--6--6--\--5--5--\--3--3--/--5--|--0--0--0--0------
       .  .     .  .                                .  .  .  .      

                                                                    
E-------------------------------------------------------------------
B-------------------------------------------------------------------
G-------------------------------------------------------------------
D---8--\--7-----------------5--/--7-----------------5---------------
A---8--\--7-----------------5--/--7-----------------5---------------
E---6--\--5-----0--0--0--0--3--/--5-----0--0--0--0--3-----0--0------
                .  .  .  .              .  .  .  .        .  .      

                                                                    
E-------------------------------------------------------------------
B-------------------------------------------------------------------
G-------------------------------------------------------------------
D---------------5-----------------------8--\--7---------------------
A---------------5-----------------------8--\--7---------------------
E---0--0--0--0--3-----0--0--0--0--0--0--6--\--5-----0--0--0--0------
    .  .  .  .        .  .  .  .  .  .              .  .  .  .      

                                                                    
E---------------------------------------------------------|---------
B---------------------------------------------------------|---------
G---------------------------------------------------------|---------
D---5--/--7-----------------5-----------7--\--5--5--/--7--|---------
A---5--/--7-----------------5-----------7--\--5--5--/--7--|---------
E---3--/--5-----0--0--0--0--3-----0-----5--\--3--3--/--5--|--0------
                .  .  .  .        .                          .      

                                                                    
E-------------------------------------------------------------------
B-------------------------------------------------------------------
G-------------------------------------------------------------------
D------------8--\--7-----------------5--/--7-----------------5------
A------------8--\--7-----------------5--/--7-----------------5------
E---0--0--0--6--\--5-----0--0--0--0--3--/--5-----0--0--0--0--3------
    .  .  .              .  .  .  .              .  .  .  .         
[ Tab from: http://www.guitartabs.cc/tabs/t/testament/one_mans_fate_tab.html ]
                                                                    
E-------------------------------------------------------------------
B-------------------------------------------------------------------
G-------------------------------------------------------------------
D------------------------5-----------------------8--\--7------------
A------------------------5-----------------------8--\--7------------
E------0--0--0--0--0--0--3-----0--0--0--0--0--0--6--\--5-----0------
       .  .  .  .  .  .        .  .  .  .  .  .              .      

                                                                    
E---------------------|---------------------------------------------
B---------------------|---------------------------------------------
G---------------------|---------------------------------------------
D------------5--/--7--|--2------------------------------------------
A------------5--/--7--|--2-----------------------------5--/--7------
E---0--0--0--3--/--5--|--0-----0-----0-----0-----0-----3--/--5------
    .  .  .                    .     .     .     .                  

                                                                    
E-------------------------------------------------------------------
B-------------------------------------------------------------------
G-------------------------------------------------------------------
D------------------7--/--8--\--7------------------------------------
A------8-----------5--/--6--\--5-----7--/--8--\--7-----5-----7------
E------6-----0-----------------------5--/--6--\--5-----3-----5------
             .                                                      

                                                                    
E-------------------------------------------------------------------
B-------------------------------------------------------------------
G-------------------------------------------------------------------
D------------2------------------------------------------------------
A---\--5-----2-----------------------------5--/--7-----8------------
E---\--3-----0-----0-----0--0--0-----0-----3--/--5-----6-----6------
                   .     .  .  .     .                       .      

                                                                    
E---------------------------------------|---------------------------
B---------------------------------------|---------------------------
G---------------------------------------|---------------------------
D------------8--\--7--7--\--5--5--/--7--|--2------------------------
A---------------------------------------|--2------------------------
E------6-----6--\--5--5--\--3--3--/--5--|--0-----0-----0-----0------
       .                                         .     .     .      

                                                                    
E-------------------------------------------------------------------
B-------------------------------------------------------------------
G-------------------------------------------------------------------
D------------------------------------7--/--8--\--7------------------
A------------5--/--7-----8-----------5--/--6--\--5-----7--/--8------
E------0-----3--/--5-----6-----0-----------------------5--/--6------
       .                       .                                    

                                                                    
E-------------------------------------------------------------------
B-------------------------------------------------------------------
G-------------------------------------------------------------------
D------------------------------2------------------------------------
A---\--7-----5-----7--\--5-----2------------------------------------
E---\--5-----3-----5--\--3-----0-----0-----0--0--0-----0--0--0------
                                     .     .  .  .     .  .  .      

                                                                    
E---------------------------------------------|---------------------
B---------------------------------------------|---------------------
G---------------------------------------------|---------------------
D------8-----7--------8-----7--------------2--|--8-----7------------
A------8-----7--------8-----7--------5--7--2--|--8-----7------------
E------6-----5--------6-----5--------3--5--0--|--6-----5------------
                                     .  .                           

                                                                    
E-------------------------------------------------------------------
B-------------------------------------------------------------------
G-------------------------------------------------------------------
D---8-----7--------------2-----2------------------------------------
A---8-----7--------5--7--2-----2------------------------------------
E---6-----5--------3--5--0-----0--0-----0--0--0-----3-----5---------
                   .  .           .     .  .  .     .     .         

                                                                    
E------------------------------------------------|------------------
B------------------------------------------------|------------------
G------------------------------------------------|------------------
D------------------------------------------------|--2---------------
A---------------8-----7-----------------5--/--7--|--2---------------
E---6--6--5--5--6-----5-----6--6--5--3--3--/--5--|--0--0-----0------
    .  .  .  .  .     .     .  .  .  .                 .     .      

                                                                    
E-------------------------------------------------------------------
B-------------------------------------------------------------------
G-------------------------------------------------------------------
D-------------------------------------------------------------------
A------------------------5--/--7-----------------8--\--7--8--\------
E---0--0-----0--0--0-----3--/--5-----6--6--5--5--6--\--5--6--\------
    .  .     .  .  .                 .  .  .  .                     

                                                                    
E-------------------------------------------------------------------
B-------------------------------------------------------------------
G-------------------------------------------------------------------
D------------------2------------------------------------------------
A---7--5--/--7-----2--------------------------------5--/--7---------
E---5--3--/--5-----0--0-----0--0--0-----0--0--0-----3--/--5---------
                      .     .  .  .     .  .  .                     

                                                                    
E------------------------------------------------|------------------
B------------------------------------------------|------------------
G------------------------------------------------|------------------
D------------------------------------------------|--2---------------
A---------------8--\--7-----------------5--/--7--|--2---------------
E---6--6--5--5--6--\--5-----6--6--5--5--3--/--5--|--0--0-----0------
    .  .  .  .              .  .  .  .                 .     .      

                                                                    
E-------------------------------------------------------------------
B-------------------------------------------------------------------
G-------------------------------------------------------------------
D-------------------------------------------------------------------
A------------------------5--/--7-----------------8--\--7--8--\------
E---0--0-----0--0--0-----3--/--5-----6--6--5--5--6--\--5--6--\------
    .  .     .  .  .                 .  .  .  .                     

                                                                    
E---------------------------------------------------------|---------
B---------------------------------------------------------|---------
G---------------------------------------------------------|---------
D---------------------------------------------------------|--2------
A---7--5--/--7--8-----7-----5-----8--7-----8--7-----5--7--|--2------
E---5--3--/--5--6--0--5--0--3--0--6--5-----6--5-----3--5--|--0------
                   .     .     .  .  .     .  .     .  .            

                                                                    
E-------------------------------------------------------------------
B-------------------------------------------------------------------
G-------------------------------------------------------------------
D---------5--\--4--------/--7-----5-----/--7-----5--\-----2---------
A---------5--\--4-----------------------------------------2---------
E---0--0--3--\--2--0--0--/--5-----3--0--/--5-----3--\-----0--0------
    .  .           .  .              .                       .      

                                                                    
E-------------------------------------------------------------------
B-------------------------------------------------------------------
G-------------------------------------------------------------------
D------5--\--4--------/--7-----5-----/--7-----5--\-----2------------
A------5--\--4-----------------------------------------2------------
E---0--3--\--2--0--0--/--5-----3--0--/--5-----3--\-----0--0--0------
    .           .  .              .                       .  .      

                                                                    
E-------------------------------------------------------------------
B-------------------------------------------------------------------
G-------------------------------------------------------------------
D---5--\--4--------/--7-----5-----/--7-----5--\-----2--------5------
A---5--\--4-----------------------------------------2--------5------
E---3--\--2--0--0--/--5-----3--0--/--5-----3--\-----0--0--0--3------
             .  .              .                       .  .         

                                                                    
E---------------------------------------------|---------------------
B---------------------------------------------|---------------------
G---------------------------------------------|---------------------
D---\--4--------/--7-----5-----/--7-----5--\--|-----4--------4------
A---\--4--------------------------------------|-----4--------4------
E---\--2--0--0--/--5-----3--0--/--5-----3--\--|--2--2--2--2--2------
          .  .              .                    .     .  .         

                                                                    
E-------------------------------------------------------------------
B-------------------------------------------------------------------
G-------------------------------------------------------------------
D---------/--9-----7-----/--9-----7--\--------4--------4------------
A---------/--9-----7-----/--9-----7--\--------4--------4------------
E---2--2--/--7-----5--5--/--7-----5--\-----2--2--2--2--2--2--2------
    .  .              .                    .     .  .     .  .      

                                                                    
E-------------------------|-----------------------------------------
B-------------------------|-----------------------------------------
G-------------------------|-----------------------------------------
D---/--9-----7------------|--2--------5--\--4--------/--7-----5-----
A---/--9-----7-----12--\--|--2--------5--\--4-----------------------
E---/--7-----5--5--12--\--|--0--0--0--3--\--2--0--0--/--5-----3-----
                .               .  .           .  .                 

                                                                    
E-------------------------------------------------------------------
B-------------------------------------------------------------------
G-------------------------------------------------------------------
D------/--7-----5--\-----2--------5--\--4--------/--7-----5---------
A------------------------2--------5--\--4---------------------------
E---0--/--5-----3--\-----0--0--0--3--\--2--0--0--/--5-----3--0------
    .                       .  .           .  .              .      

                                                                    
E-------------------------------------------------------------------
B-------------------------------------------------------------------
G-------------------------------------------------------------------
D---/--7-----5--\-----2--------5--\--4--------/--7-----5-----/------
A---------------------2--------5--\--4------------------------------
E---/--5-----3--\-----0--0--0--3--\--2--0--0--/--5-----3--0--/------
                         .  .           .  .              .         

                                                                    
E---------------------------------------------------------|---------
B---------------------------------------------------------|---------
G---------------------------------------------------------|---------
D---7-----5--\-----2--------5--\--4--------/--7-----5--\--|---------
A------------------2--------5--\--4-----------------------|---------
E---5-----3--\-----0--0--0--3--\--2--0--0--/--5-----3--\--|--0------
                      .  .           .  .                    .      

                                                                    
E-------------------------------------------------------------------
B-------------------------------------------------------------------
G-------------------------------------------------------------------
D------------/--4--------4-----4--/--5--4--\-----------------/------
A------------/--4--------4-----4--/--5--4--\-----------------/------
E---0--0--0--/--2-----0--2--0--2--/--3--2--\-----0--0-----0--/------
    .  .  .           .     .                    .  .     .         

                                                                    
E-------------------------------------------------------------------
B-------------------------------------------------------------------
G-------------------------------------------------------------------
D---5--------5-----/--7--5--\-----------------/--4--------4---------
A---5--------5--------------------------------/--4--------4---------
E---3-----0--3--0--/--5--3--\-----0--0--0--0--/--2-----0--2--0------
          .     .                 .  .  .  .           .     .      

                                                                    
E-------------------------------------------------------------------
B-------------------------------------------------------------------
G-------------------------------------------------------------------
D---4--/--5--4--\-----------------/--5-----------5--/--7--7---------
A---4--/--5--4--\-----------------/--5-----------5--/--7--7---------
E---2--/--3--2--\-----0--0-----0--/--3-----0-----3--/--5--5---------
                      .  .     .                                    

                      Repeat Various                                
E------------------|-----------------|------------------------------
B------------------|-----------------|------------------------------
G------------------|-----------------|------------------------------
D------5-----------|-----------------|------------------------------
A------5-----------|-----------------|------------------------------
E------3--3--3--3--|-----------------|------------------------------
          .  .  .                                                   

    Gtr.1                                                           
E-------------------------------------------------------------------
B-------------------------------------------------------------------
G--------------------------------------------------------4---/7-----
D-------------------------------------------------------------------
A---5-----------(5)-----------------7---/10-----7-------------------
E-----------------------------0-------------------------------------
                                                                    

    Gtr.2                                                           
E-------------------------------------------------------------------
B--------------------------------------------------------7---/12----
G------------------3------------------------------------------------
D---3--------------------3-----2---------/9-------------------------
A-------------------------------------------------------------------
E-------------------------------------------------------------------
                                                                    

    Gtr.1                                                           
E-----------------------------------|-------------------------------
B-----------------------------------|-------------------------------
G---4-------------------------------|-------------------------------
D--------------------------3--------|-------------------------------
A-------/5-----------5--------------|--5-----------5----------------
E--------------------------------0--|-------------------------------
                                                                    

    Gtr.2                                                           
E------------------------------------|------------------------------
B------------------------------------|------------------------------
G-------/10--------------------------|--------2-----5-----3---------
D---------------------------------2--|--3---------------------------
A------------------------------------|------------------------------
E------------------------------------|------------------------------
                                                                    

    Gtr.1                                                           
E-------------------------------------------------------------------
B-------------------------------------------------------------------
G-------------------------------------------------------------------
D-------------------------------------------------------------------
A---------7---/10-----7--------7---/10-----7------/5--------5-------
E---0---------------------------------------------------------------
                                                                    

    Gtr.2                                             T.H.          
E-------------------------------------------------------------------
B-------------------------------------------------------------------
G-------------------------------------------------/7--(19)----------
D---2-----9---/12-----7--------9---/12-----7------------------------
A---------------------------7---------------------------------------
E-------------------------------------------------------------------
                                                                    

    Gtr.1             Fade Out                                      
E-------------------------------------------------------------------
B-------------------------------------------------------------------
G-------------------------------------------------------------------
D---3---------------------------------------------------------------
A-------------------------------------------------------------------
E---------0---------------------------------------------------------
                                                                    

    Gtr.2                                                           
E-------------------------------------------------------------------
B-------------------------------------------------------------------
G---(7)-------------------------------------------------------------
D-------------------------------------------------------------------
A-------------------------------------------------------------------
E-------------------------------------------------------------------
                                                                    



====================================================================
==          Created with a demo version of BUCKET O' TAB          ==
==            tablature creation software for Windows             ==
==                 http://www.his.com/~gse/bucket                 ==
====================================================================
Comments