Testament - New Order Chords & Tabs

 

New Order Chords & Tabs

Testament Chords & Tabs

Version: 1 Type: Tab 0 ratings
1 star 2 stars 3 stars 4 stars 5 stars
comments

New Order Tab

                     - T e s t A m e n T -
                  New order from ... New Order

              tabbed by fatal[fatal@esoterica.pt]
                        


     All Metal distortion throughout
  
              first coords(before and then behind the tapping run)
E-|------------------------------------------------------------------------------|
B-|------------------------------------------------------------------------------|
G-|------------------------------------------------------------------------------|       
D-|---------2----(2)-----(2)-----(2)--------------2----(2)--(2)--(2)-------------|
A-|-5--4----2----(2)-----(2)-----(2)--------4--5--0----(0)--(0)--(0)-------------| 
E-|-3--2----0----(0)-----(0)-----(0)-----0--2--3---------------------------------|

the ()choords go only on the 2nd/3rd time
[ Tab from: http://www.guitartabs.cc/tabs/t/testament/new_order_tab.html ]
E-|--------------------------------------------------------------------------------|
B-|--------------------------------------------------------------------------------|
G-|--------------------------------------------------------------------------------|       
D-|------------------------------2--------------------------5---4---3--------------|
A-|-5/4---2-----------------4/5--0--0--0--0-0-0---5/2-------3---2---1-----5----4/2-|
E-|-3/2---0--0--0--0-0-0----2/3-------------------3/2-0--0----0---0---0--3--0--2/3-|
           
              
E-|------------------------------------------------------------------------------|
B-|------------------------------------------------------------------------------|
G-|------------------------------------------------------------------------------|
D-|----9------10------9-------10--------9---8---9-----10-------9---------7-(8)*--|
A-|----7------8-------7--------8--------7---6---7------8-------7---7-8-----------|
E-|------0-0-----0-0-----0-0-----0-0--------------0-0-----0-0--------------------|
   
  *Pinch harmonic
Comments