Testament - Love To Hate Chords & Tabs

 

Love To Hate Chords & Tabs

Testament Chords & Tabs

Version: 1 Type: Tab 0 ratings
1 star 2 stars 3 stars 4 stars 5 stars
comments

Love To Hate Tab

   
"Love to hate", by Testament, from the album "Souls of black"

   Mainriff 2x (last part: lower notes= gtr.1 higher notes= gtr.2)
-\ 1 + 2 + 3 + 4 + 1 + 2 + 3 + 4 + 1 + 2 + 3 + 4 + 1 + 2 + 3 + 4 +
E|-----------------------------------------------------------------|
B|-----------------------------------------------------------------|
G|-----------------------------------------------------------------|
D|-------------6-----------------------------------6---7---4---5---|
A|-----7---5-------7---5---5---5h7-----5---7---8-----------2---3---|
E|-000---0---0---0---0---0---0-----000---0---0---0---0---0---------|
PM ...   .   .   .   .   .   .     ...   .   .   .   .   .
-\ 1 + 2 + 3 + 4 + 1 + 2 + 3 + 4 + 1 + 2 + 3 + 4 + 1 + 2 + 3 + 4 +
E|-----------------------------------------------------------------|
B|-----------------------------------------------------------------|
G|-----------------------------------------------------------------|
D|-------------6---------------------------------------------------|
A|-----7---5-------7---5---5---5h7-7-5---------------------3---3---|
E|-000---0---0---0---0---0---0---------8-7-8-7-5-3-5-3-1-0-1---1---|
PM ...   .   .   .   .   .   .     . . . . . . . . . . . .
   Verse riff A 2x
-\ 1 + 2 + 3 + 4 + 1 + 2 + 3 + 4 + 1 + 2 + 3 + 4 1 + 2 + 3 + 4 +
E|---------------------------------------------------------------|
B|---------------------------------------------------------------|
G|---------------------------------------------------------------|
D|---------------------------------------------------------------|
A|-5h7-------------5h7-------------5h7---5-7---5-----------------|
E|-----000-0-5-6-7-----000-0-5-6-7-----6-----6---6---------------|
PM     ... . . . .     ... . . . .
   Verse riff B 1x (gtr.1 =lower notes, gtr.2 = higher notes)
-\ 1 + 2 + 3 + 4 + 1 + 2 + 3 + 4 + 1 + 2 + 3 + 4 1 + 2 + 3 + 4 +
E|---------------------------------------------------------------|
B|---------------------------------------------------------------|
G|---------------------------------------------------------------|
D|-5h6-------------5h6-------------5h6---5-6---5-----------------|
A|-5h7-------------5h7-------------5h7-5-5-7-5-5-----------------|
E|-----000-0-5-6-7-----000-0-5-6-7-----6-----6---6---------------|
PM     ... . . . .     ... . . . .
-\ 1 + 2 + 3 + 4 + 1 + 2 + 3 + 4 + 1 + 2 + 3 + 4 1 + 2 1 + 2 + 3 + 4 +
E|-------------------------------------------------------------------|
B|-------------------------------------------------------------------|
G|-------------------------------------------------------------------|
D|-5h6-------------5h6-------------5h6---5-6---5---------------0---2-|
A|-5h7-------------5h7-------------5h7-5-5-7-5-5-5-----7---8---0---2-|
E|-----000-0-5-6-7-----000-0-5-6-7-----6-----6---6-----5---6---------|
PM     ... . . . .     ... . . . .                     .   .
  Chorus Riff 1x
-\ + 1 + 2 + 3 + 4 + 1 + 2 + 3 + 4 + 1 + 2 + 3 + 4 + 1 + 2 + 3 + 4 +
E|-----------------------------------------------------------------|
B|-----------------------------------------------------------------|
G|-----------------------------------------------------------------|
D|-----------------------------------------------------------0---2-|
A|-------8p7---7---------10p7--7---------8p7---7-----7---8---0---2-|
E|-0-0-00----0-----0-0-00----0-----0-0-00----0-------5---6---------|
PM . . ..    .     . . ..    .     . . ..    .               .
-\ + 1 + 2 + 3 + 4 + 1 + 2 + 3 + 4 + 1 + 2 + 3 + 4 + 1 + 2 + 3 +
E|-------------------------------------------------------------|
B|-------------------------------------------------------------|
G|-------------------------------------------------------------|
D|-----------------------------------------------------------0-|
A|-------8p7---7---7-----10p7--7---------8p7---7-----7---8---0-|
E|-0-0-00----0-------0-00----0-----0-0-00----0-------5---6-----|
PM . . ..    .       . ..    .     . . ..    .       .   .

Verse Riff A 2x

Verse Riff B 1x

Chorus Riff 1x

Mainriff 2x

   Solo Rhytm
-\ 1 + 2 + 3 + 4 + 1 + 2 + 3 + 4 + 1 + 2 + 3 + 4 + 1 + 2 + 3 + 4 +
E|-----------------------------------------------------------------|
B|-----------------------------------------------------------------|
G|-----------------------------------------------------------------|
D|--------------------------------6-------6-------6----------------|
A|-5-------5-------5-------5-5--5-4---4-4-4---4-4-4---4-4-4-6-4----|
E|-3---3-3-3---3-3-3-------3-3--3-------------------------------7--|
 |     . .     . .         . .  .     . .     . .     . .          |
E|-----------------------------------------------------------------|
B|-----------------------------------------------------------------|
G|--------------------------------9-------9-------9---9-11-9-------|
D|------------------------8-10-11----------------------------12-11-|
A|-5-------5-------5---10------------------------------------------|
E|-3---3-3-3---3-3-3-----------------------------------------------|
PM     . .     . .
-\ 1 + 2 + 3 + 4 + 1 + 2 + 3 + 4 + 1 + 2 + 3 + 4 + 1 + 2 + 3 + 4 +
E|-----------------------------------------------------------------|
B|-----------------------------------------------------------------|
G|-----------------------------------------------------------------|
D|----------------------------6--8------------------------(pick)---|
A|-8-------8-------8-------8--4--6-2--2--2-2--2--2-2-----(scrape)--|
E|-6---6-6-6---6-6-6-------6-------0--0--0-0--0--0-0---------------|
 |     . .     . .         .  .  . .  .  . .  .  . .               |
E|-----------------------------------------------------------------|
B|-----------------------------------------------------------------|
G|----------------------------9--1112-12-1212-12-1212--------------|
D|-11------11------11------11--------------------------------------|
A|-----------------------------------------------------------------|
E|-----------------------------------------------------------------|

-\ 1 + 2 + 3 + 4 + 1 + 2 + 3 + 4 + 1 + 2 + 3 + 4 + 1 + 2 + 3 + 4 +
E|-----------------------------------------------------------------|
B|-----------------------------------------------------------------|
G|-----------------------------------------------------------------|
D|---------------------------------3-------------------------------|
A|-2-------------------------------1---------------3-------5-------|
E|-0-----------------------------------------------1-------3-------|
[ Tab from: http://www.guitartabs.cc/tabs/t/testament/love_to_hate_tab.html ]
-\ 1 + 2 + 3 + 4 + 1 + 2 + 3 + 4 + 1 + 2 + 3 + 4 + 1 + 2 + 3 + 4 +
E|-----------------------------------------------------------------|
B|-----------------------------------------------------------------|
G|-----------------------------------------------------------------|
D|---------------------------------3-----------------------5--4--3-|
A|-2-------------------------------1---------------3-------3--2--1-|
E|-0-----------------------------------------------1---------------|
PM                                                         .  .  .
-\ 1 + 2 + 3 + 4 + 1 + 2 + 3 + 4 + 1 + 2 + 3 + 4 + 1 + 2 + 3 + 4 +
E|-----------------------------------------------------------------|
B|-----------------------------------------------------------------|
G|-----------------------------------------------------------------|
D|---------------------------------3-------------------------------|
A|-2-------------------------------1---------------3-------5-------|
E|-0-----------------------------------------------1-------3-------|

-\ 1 + 2 + 3 + 4 + 1 + 2 + 3 + 4 + 1 + 2 + 3 + 4 + 1 + 2 + 3 + 4 +
E|-----------------------------------------------------------------|
B|-----------------------------------------------------------------|
G|-----------------------------------------------------------------|
D|---------------------------------3-----------------------5--4--3-|
A|-2-------------------------------1---------------3-------3--2--1-|
E|-0-----------------------------------------------1---------------|
PM                                                         .  .  .
-\ 1 + 2 + 3 + 4 + 1 + 2 + 3 + 4 + 1 + 2 + 3 + 4 + 1 + 2 + 3 + 4 +
E|-----------------------------------------------------------------|
B|-----------------------------------------------------------------|
G|-----------------------------------------------------------------|
D|-----------------7---------------4---------------2-----------2---|
A|-4---------------5---5-5-555-555-2---2-2-222-222-0---00002---0---|
E|-2---2-2-222-222-----------------------------------------0-------|
PM     . . ... ...     . . ... ...     . . ... ...     ....
-\ 1 + 2 + 3 + 4 + 1 + 2 + 3 + 4 + 1 + 2 + 3 + 4 + 1 + 2 + 3 + 4 +
E|-----------------------------------------------------------------|
B|-----------------------------------------------------------------|
G|-----------------------------------------------------------------|
D|-----------------7---------------4---------------2-----------2---|
A|-4---------------5---5-5-555-555-2---2-2-222-222-0---00002---0---|
E|-2---2-2-222-222-----------------------------------------0-------|
PM     . . ... ...     . . ... ...     . . ... ...     ....
-\ 1 + 2 + 3 + 4 + 1 + 2 + 3 + 4 + 1 + 2 + 3 + 4 + 1 + 2 + 3 + 4 +
E|-----------------------------------------------------------------|
B|-----------------------------------------------------------------|
G|-----------------7---------------4---------------2-----------2---|
D|-4---------------5---------------2---------------0---00002---0---|
A|-2-------------------------------------------------------0-------|
E|-----------------------------------------------------------------|
PM                                                     ....
-\ 1 + 2 + 3 + 4 + 1 + 2 + 3 + 4 + 1 + 2 + 3 + 4 + 1 + 2 + 3 + 4 +
E|-----------------------------------------------------------------|
B|-----------------------------------------------------------------|
G|-----------------7---------------4---------------2---------------|
D|-4---------------5---------------2---------------0---00002-------|
A|-2-------------------------------------------------------0---0-0-|
E|-----------------------------------------------------------------|
PM                                                     ....    . .
-\ 1 + 2 + 3 + 4 + 1 + 2 + 3 + 4 + 1 + 2 + 3 + 4 + 1 + 2 + 3 + 4 +
E|-----------------------------------------------------------------|
B|-----------------------------------------------------------------|
G|-----------------------------------------------------------------|
D|-----------------------------------------------------------------|
A|-2-------2-------2-------2-------3-------3-------5-------3/5\3---|
E|-0---0-0-0---0-0-0---0-0-0---0-0-1---1-1-1---1-1-3---3-3-1/3\1---|
PM     . .     . .     . .     . .     . .     . .     . .
-\ 1 + 2 + 3 + 4 + 1 + 2 + 3 + 4 + 1 + 2 + 3 + 4 + 1 + 2 + 3 + 4 +
E|-----------------------------------------------------------------|
B|-----------------------------------------------------------------|
G|-----------------------------------------------------------------|
D|---------------------------------3-------3---------------5--2----|
A|-2-------2-------2-------2-------1---1-1-1---1-1-5-------3--0--2-|
E|-0---0-0-0---0-0-0---0-0-0---0-0-----------------2-------------0-|
PM     . .     . .     . .     . .     . .     . .         .  .  .
-\ 1 + 2 + 3 + 4 + 1 + 2 + 3 + 4 + 1 + 2 + 3 + 4 + 1 + 2 + 3 + 4 +
E|-----------------------------------------------------------------|
B|-----------------------------------------------------------------|
G|-----------------------------------------------------------------|
D|-----------------------------------------------------------------|
A|-2-------2-------2-------2-------3-------3-------5-------3/5\3---|
E|-0---0-0-0---0-0-0---0-0-0---0-0-1---1-1-1---1-1-3---3-3-1/3\1---|
PM     . .     . .     . .     . .     . .     . .     . .
-\ 1 + 2 + 3 + 4 + 1 + 2 + 3 + 4 + 1 + 2 + 3 + 4 + 1 + 2 + 3 + 4 +
E|-----------------------------------------------------------------|
B|-----------------------------------------------------------------|
G|-----------------------------------------------------------------|
D|---------------------------------3--3--3-3--3--3-3---------------|
A|-2-------2-------2-------2-------1--1--1-1--1--1-1---------------|
E|-0---0-0-0---0-0-0---0-0-0---0-0---------------------------000-0-|
PM     . .     . .     . .     . . .  .  . .  .  . .         ... .

Verse Riff A 2x

Verse Riff B 1x

  Double Chorus
-\ + 1 + 2 + 3 + 4 + 1 + 2 + 3 + 4 + 1 + 2 + 3 + 4 + 1 + 2 + 3 + 4 +
E|-----------------------------------------------------------------|
B|-----------------------------------------------------------------|
G|-----------------------------------------------------------------|
D|-----------------------------------------------------------0---2-|
A|-------8p7---7---------10p7--7---------8p7---7-----7---8---0---2-|
E|-0-0-00----0-----0-0-00----0-----0-0-00----0-------5---6---------|
PM . . ..    .     . . ..    .     . . ..    .               .
-\ + 1 + 2 + 3 + 4 + 1 + 2 + 3 + 4 + 1 + 2 + 3 + 4 + 1 + 2 + 3 +
E|-----------------------------------------------------------------|
B|-----------------------------------------------------------------|
G|-----------------------------------------------------------------|
D|-----------------------------------------------------------0---2-|
A|-------8p7---7---7-----10p7--7---------8p7---7-----7---8---0---2-|
E|-0-0-00----0-------0-00----0-----0-0-00----0-------5---6---------|
PM . . ..    .       . ..    .     . . ..    .       .   .
-\ + 1 + 2 + 3 + 4 + 1 + 2 + 3 + 4 + 1 + 2 + 3 + 4 + 1 + 2 + 3 + 4 +
E|-----------------------------------------------------------------|
B|-----------------------------------------------------------------|
G|-----------------------------------------------------------------|
D|-----------------------------------------------------------0---2-|
A|-------8p7---7---------10p7--7---------8p7---7-----7---8---0---2-|
E|-0-0-00----0-----0-0-00----0-----0-0-00----0-------5---6---------|
PM . . ..    .     . . ..    .     . . ..    .               .
-\ + 1 + 2 + 3 + 4 + 1 + 2 + 3 + 4 + 1 + 2 + 3 + 4 + 1 + 2 + 3 +
E|-------------------------------------------------------------|
B|-------------------------------------------------------------|
G|-------------------------------------------------------------|
D|-----------------------------------------------------------0-|
A|-------8p7---7---7-----10p7--7---------8p7---7-----7---8---0-|
E|-0-0-00----0-------0-00----0-----0-0-00----0-------5---6-----|
PM . . ..    .       . ..    .     . . ..    .       .   .

Mainriff 2x (hold last F note)

  Ending
-\ + 1 + 2 + 3 + 4 +
E|-------------------|
B|-------------------|
G|-------------------|
D|-------------------|
A|-----------2-------|
E|-113-1-3-1-0-------|
PM ... . . .

Transcribed by Axel Hallingbäck - oedward@hotmail.com
Comments