Testament - Hypnosis Chords & Tabs

 

Hypnosis Chords & Tabs

Testament Chords & Tabs

Version: 1 Type: Tab 0 ratings
1 star 2 stars 3 stars 4 stars 5 stars
comments

Hypnosis Tab

Hypnosis by Testament from the album The New Order
Tabbed by Nick S.

I didn't put in timing or anything, so just listen to the album to figure it out.  
I know that I'm missing the small part at the end, but I will post it as soon as 
possible.  There may be a few mistakes, so feel free to correct them.  
Feel free to distribute this all you want and e-mail me if you 
have Testament tab requests or comments at jasco@ix.netcom.com.  
(No requests for songs off of Demonic though.)  Thanks.

|----------------Played throughout entire song-------------------------|
|-12------------------10-----------------------------------------------|
|----12-13---------------10-11-----------------------------------------|
|----------------------------------------------------------------------|
|----------14------------------12--------------------------------------|
|----------------------------------------------------------------------|
|----------------------------------------------------------------------|

Solo                                                          |-NH-|

|----------------------------------------------------------------------|
|-/12~-10\8-10~-10\8\6-3~-5-6-5^-5p3-/8~-6-5~--0-1-0-------------------|
|---------------------------------------------------------2------7-----|
|-----------------------------------------------------2-3-0----7-------|
|----------------------------------------------------------------------|
|----------------------------------------------------------------------|

|----12-14-14h15-14-12------------10-12-12h13-12-10--------------------|
|-12-------------------/12~---/10-------------------10~-10/8/6-5~------|
|----------------------------------------------------------------------|
|----------------------------------------------------------------------|
|----------------------------------------------------------------------|
|----------------------------------------------------------------------|

  |-3-|
|---------3-------------------------------5-8-10/12-13/15-/12~---/19~--|
|-0h3/5~----5-3-----------------------3-6------------------------------|
|---------------4-3-----------------2----------------------------------|
|-------------------5-----------2-3------------------------------------|
|---------------------5-------5----------------------------------------|
|----------------------------------------------------------------------|

|-20~-18-17-------15-17-18~-20^-19~-19\0-----15-19~----15-19~----15-19\|
|-------------/15------------------------/17-------/17--------/17------|
|----------------------------------------------------------------------|
|----------------------------------------------------------------------|
|----------------------------------------------------------------------|
|----------------------------------------------------------------------|

    |---------------------REAL FAST-----------|
[ Tab from: http://www.guitartabs.cc/tabs/t/testament/hypnosis_tab.html ]
|-0-------13-17~-13-----------------------------17-15-13\10-10/12------|
|---14-15-----------15----------------------15-------------------------|
|----------------------14----------------14-------------------------7--|
|-------------------------15-12-15-12-12-------------------------------|
|----------------------------------------------------------------------|
|----------------------------------------------------------------------|

|------------------------------------10-12-13-12-10h12~----------------|
|--------------------------------10----------------------15-12---------|
|-7---9p7-------------------7-10-------------------------------12~-----|
|---------9-8-7~----------------------------------------------------14-|
|-----------------5-7-8-/8---------------------------------------------|
|----------------------------------------------------------------------|

                      x x     x   x   x     xx    xx     xx

|----------------------------------------------10----/13----/12~-------|
|-----------------------------------6----10-------10-----15------------|
|-------------------------------7-----7-----10-------------------------|
|---------------------------7-----7------------------------------------|
|-14------------------5-7-8---8----------------------------------------|
|----15~-14-15-12~-----------------------------------------------------|

  T        T      T       T      T      T      T      T      T

|12-10p8--10-8p7--8-7p5--10-8p7--8-7p5--7-5p3--5-3p2--3-2p0--5-3p2-----|
|----------------------------------------------------------------------|
|----------------------------------------------------------------------|
|----------------------------------------------------------------------|
|----------------------------------------------------------------------|
|----------------------------------------------------------------------|

  T      T      T         |---------Can't figure this part out--------|

|-7-5p3--8-7p5--7-5p3--/10---------------------------------------------|
|----------------------------------------------------------------------|
|----------------------------------------------------------------------|
|----------------------------------------------------------------------|
|----------------------------------------------------------------------|
|----------------------------------------------------------------------|

|--/7-12-14-15-17-18-19-20-19-17~-13-10~--13-17-18-20-20^-20^-20^-22^--|
|----------------------------------------------------------------------|
|----------------------------------------------------------------------|
|----------------------------------------------------------------------|
|----------------------------------------------------------------------|
|----------------------------------------------------------------------|

Notation:

^ Bend
/ Slide Up
\ Slide Down
~ Vibrato
T Tap
x Palm mute
|-3-| Triplet
|-NH-| Natural Harmonic
Comments