Testament - Eerie Habitants Chords & Tabs

 

Eerie Habitants Chords & Tabs

Testament Chords & Tabs

Version: 1 Type: Tab 0 ratings
1 star 2 stars 3 stars 4 stars 5 stars
comments

Eerie Habitants Tab

EEIRIE HABITANTS by T e s t A m e n T
[recorded in the new order album]

[accoustic intro only]


fade from wind effects [12 string guitar]
|-------------------------------------------|
|-11----11\8----8\5---8\2------2--------------|
|---12------9------6------3------3-0-----------|
|-----14------11-----8------5--------1---------|
|--------------------------------------2-------|
|----------------------------------------------|

(loop through the whole solo)
|--------0-------0-------0-------------|
|------8---8---8---8---8---8-----------|
|----9-------9-------9-----------------|
|--------------------------------------|
|--------------------------------------|
|--------------------------------------|

|--------------------------------------------------------------15-------|
|--------------------11----------------------------------14-17----17-14-|
|---------------9-12----12-9-----------------------12-15----------------|
|----------8-11--------------11-8------------11-14----------------------|
|-----7-10------------------------10-7-10-13----------------------------|
|-6-9-------------------------------------------------------------------|
[ Tab from: http://www.guitartabs.cc/tabs/t/testament/eerie_habitants_tab.html ]
|------------------------------------------7-----7-12/----19------------|
|----------------------------------------------8-------------18---------|
|-15-12--------------------9---9-12---9-12---9------------------17------|
|-------14-11------------9----9-----9------------------------------17---|
|-------------13-10-7-10----10------------------------------------------|
|-----------------------------------------------------------------------|

|-15----------12-----------------------------------------|
|----17----------12-------12-----------------------------|
|-------16----------12-------12-------12-----------------|
|----------17----------14-------14-------14--------------|
|----------------------------------14-------14-10~~ 7~---|
|--------------------------------------------------------|

repeat this four times and then end with:

[12 string guitar]
|-------------------------------------------|
|-11----11\8----8\5---8\2------2--------------|
|---12------9------6------3------3-0-----------|
|-----14------11-----8------5--------1---------|
|--------------------------------------2-------|
|----------------------------------------------|

Fatal,
Comments