Testament - Disciples Of The Watch Chords & Tabs

 

Disciples Of The Watch Chords & Tabs

Testament Chords & Tabs

Version: 1 Type: Tab 0 ratings
1 star 2 stars 3 stars 4 stars 5 stars
comments

Disciples Of The Watch Tab

   
   T E S T A M E N T - D I S C I P L E S  O F  T H E  W A T C H [2 0 0 1]
                From the Album FIRST STRIKE STILL DEADLY
                     Copyright 2001 SPITFIRE RECORDS

                         New Version 1.1 - MAY '02

Originally Transcribed by: Jarle Hille Olsen
        Newest Version by: death8699

For Questions, Comments, Newest Version, or Corrections contact
 death8699: at ArchEnemies@aol.com

Check Out Death8699.com, With More Transcriptions On It:
 http://www.death8699.com




.  - palm mute                  /  - slide up to
\  - slide down to              ~  - vibrato
"  - tremelo picking           ( ) - ghost note
b  - bend                       h  - hammer-on
fb - full bend (1 step)         p  - pull-off
hb - half bend (1/2 step)       r  - release a bend
t  - tapping                    ah - artificial harmonic

Tune Gtr to D (D,G,C,F,A,D)

--DISCIPLES OF THE WATCH--

[Riff 1]                                           (End Riff 1)
[---------------------------------|---------------------------]
[---------------------------------|---------------------------]
[*--------------------------------|--------------------------*]GTR 1
[*--------------------------------|--------------------------*]
[---------5-----4-----5---4---2/3-|-/5-----4-----5---4---3\2--]
[-0-0-0-0-3_0-0-2-0-0-3-0-2-0-0/1-|-/3-0-0-2-0-0-3-0-2-0-1\0--]
  . . . .  p  .   . .   .   .  sl   sl . .   . .   .   .  sl

[---------------------------------|---------------------------]
[---------------------------------|---------------------------]
[*--------------------------------|--------------------------*]GTR 2
[*--------------------------------|--------------------------*]
[---------5-----------------------|---------------------------]
[-0-0-0-0-3-----------------------|---------------------------]
  . . . .  


[Riff 1.a](w/Gtr 2)                              (End Riff 1.a)
[---------------------------------|---------------------------]
[---------------------------------|---------------------------]
[*--------------------------------|--------------------------*]GTRS
[*--------------------------------|--------------------------*]1&2
[-2-------5-----4-----5---4---2/3-|-/5-----4-----5---4---3\2--]
[-0-0-0-0-3_0-0-2-0-0-3-0-2-0-0/1-|-/3-0-0-2-0-0-3-0-2-0-1\0--]
    . . .  p  .   . .   .   .  sl   sl . .   . .   .   .  sl


Play Riff 1.a 4 times


[Riff 1.b]
[-------------------------------|-------------------------]
[-------------------------------|-------------------------]
[*------------------------------|------------------------*]GTRS
[*------------------------------|------------------------*]1&2
[-------------------------------|-------------------------]
[-0-0-0-3_0-0-2-0-0-3_0-2_0-1_0-|-3_0-0-2-0-0-3_0-2_0-1_0-]
  * * *  p           p   p   p     p           p   p   p      
    
                                             (End Riff 1.b)
[-------------------------------|-------------------------]
[-------------------------------|-------------------------]
[*------------------------------|------------------------*]GTRS
[*------------------------------|------------------------*]1&2
[-------------------------------|-------------------------]
[-0-0-0-3_0-0-2-0-0-3_0-2_0-1_0-|-3_0-0-2-0-0-3_0-2_0-x\--]
         p           p   p   p     p           p   p   sl

 _____________________________________
[* * * = Palm Mute on first time only.]
[_____________________________________]

                                             _____________________
[Riff 2]                                    |1.                   
[---------------------|---------------------|---------------------]
[---------------------|---------------------|---------------------]
[*--------------------|---------------------|--------------------*]GTRS
[*8\7--7/8------------|-8\7--7/8------------|-8\7--7/8-----------*]1&2
[-8\7--7/8------------|-8\7--7/8------------|-8\7--7/8------------]
[--sl---sl--0--0--000-|--sl---sl--0--0--000-|--sl--sl---0--0--000-]
            .  .  ...             .  .  ...             .  .  ... 
______________________  _________________________________________
                      |2.                            (End Riff 2)|
[---------------------|---------------------|---------------------]
[---------------------|---------------------|---------------------]
[*--------------------|---------------------|--------------------*]GTRS
[*8\7--7/8--------5---|-8\7--7/8--------2-1-|--------------------*]1&2
[-8\7--7/8--------3---|-8\7--7/8--------3-2-|1--0--0--2--2--0-----]
[--sl--sl---0--0--3---|--sl--sl---0--0--*-*-|------------------3--]
            .  .                  .  .       .  .  .  .  .  .  . 

 _________________________________________________________________
[* = 2 Gtrs play single notes which transposes to making a chord. ]
[_________________________________________________________________]
 

Play Riff 2 1 time


[Riff 3]                                          (End Riff 3)
[---------------------------|--------------------------------]
[---------------------------|--------------------------------]
[*--------------------------|-------------------------------*]GTRS
[*--------------------------|-------------------10\9--------*]1&2
[-2-----4-----5-----5-4-3-2-|-2-----4-----5------8\7-----5---]
[-0-0-0-2-0-0-3-002---------|-0-0-0-2-0-0-3-0-0---sl--0--3---]
    . .   . .   ... . . . .     . .   . .   . .           

[---------------------------|--------------------------------]
[---------------------------|--------------------------------]
[*--------------------------|-------------------------------*]GTRS
[*--------------------------|-------------------10\9--------*]1&2
[-2-----4-----5-----5-4-3-2-|-2-----4-----5------8\7---------]
[-0-0-0-2-0-0-3-000---------|-0-0-0-2-0-0-3-0-0---sl--0--x\--]
    . .   . .   ... . . . .     . .   . .   . .           sl


[Riff 1.c]                                        (End Riff 1.c)
[---------------------------------|----------------------------]
[---------------------------------|----------------------------]
[*--------------------------------|---------------------------*]GTRS
[*--------------------------------|---------------------------*]1&2
[---------5-----4-----5---4---2/3-|-/5-----4-----5---4---3\2-2-]
[-0-0-0-0-3_0-0-2-0-0-3-0-2-0-0/1-|-/3-0-0-2-0-0-3-0-2-0-1\0-0-]
  . . . .  p  .   . .   .      sl   sl . .   . .   .   .  sl   


Play Riff 1.b 2 times
Play Riff 2   2 times
Play Riff 3   1 time
Play Riff 1.c 2 times
Play Riff 1.b 2 times

[Next]
[-----]
[-----]
[*---*]GTRS
[*---*]1&2
[--2--]
[--0--]
   *


--Band tacet--


[Riff 4]                                         (End Riff 4)
[--------------------------|--------------------------------]
[--------------------------|--------------------------------]
[*-------------------------|----------4__5__4--------------*]GTR 1
[*-----------4-------------|----4-------h--p---------------*]
[-2-(2)------2----2-(2)----|----2--------------3--2--0------]
[-0-(0)-----------0-(0)----|-0-----0--------------------1---]
                             .     .           .  .  .  . 

                                                 (End Riff 4)
[--------------------------|--------------------------------]
[--------------------------|----------5__6__5---------------]
[*-------------------------|------------h--p---5--4--------*]GTR 2
[*-----------4-------------|----4--------------------7-----*]
[-2-(2)------2----2-(2)----|----2-----------------------8---]
[-0-(0)-----------0-(0)----|-0-----0------------------------]
                             .     .           .  .  .  . 


Play Riff 4 1 time


[Riff 4.a]                      (End Riff 4.a)
[--------------------|-----------------------]
[--------------------|-----------------------]
[*-------------------|-4__5__4--------------*]GTR 1
[*--------------4----|---h--p---------------*]
[-2-(2)---------2----|----------3--2--0------]
[-0-(0)------0-----0-|-------------------1---]
             .     .            .  .  .  .

                                (End Riff 4.A)
[--------------------|-----------------------]
[--------------------|-5__6__5---------------]
[*-------------------|---h--p---5--4--------*]GTR 2
[*--------------4----|----------------7-----*]
[-2-(2)---------2----|-------------------8---]
[-0-(0)------0-----0-|-----------------------]
             .     .            .  .  .  .


Play Riff 4.a 3 times


[Riff 5] (over solo)
[----------------------------|--------------------------------]
[----------------------------|--------------------------------]
[*---------------------------|-------------------------------*]GTRS
[*-------------------5-------|-----------------------5-------*]1&2
[-2------------------3-------|-3--3--3--2---------2--3--------]
[-0---------0--0--0----------|----------0---------0-----------]
            .  .  .            .  .  .  

                  (End Riff 5)
[----------------------------]
[----------------------------]
[*--------------------------*]GTRS
[*-------------------5------*]1&2
[--3--3--3--3--3--3--3-------]
[----------------------------]
   .  .  .  .  .  .


[Riff 6]                                                              (End Riff 6)
[------------------------------------|-------------------------------------------]
[------------------------------------|-------------------------------------------]
[*-----------------------------------|------------------------------------------*]GTRS
[*-----------------------------------|-5--------5-----5--------5--------------5-*]1&2
[-2-----------2-----2-----2----------|-3--3--3--3--3--3--3--3--3--3--3--3--3--3--]
[-0--0--0--0--0--0--0--0--0--0--0--0-|-------------------------------------------]
     .  .  .     .     .     .  .  .      .  .     .     .  .     .  .  .  .


Play Riff 5 5 times (over solo)

[ Tab from: http://www.guitartabs.cc/tabs/t/testament/disciples_of_the_watch_tab.html ]
[Guitar Solo] [**]                                                         
[-------------3-7-3-----------------------------------12-15-12--------]
[-----------5-------5------------------------------13----------13-----]
[*--------4-----------4-------------------------12----------------12-*]GTR 3
[*------5---------------5-----------------10-14----------------------*]
[-----7-------------------7------------10-----------------------------]
[-3-7-----------------------7~----8-12--------------------------------]


[----------------------------3-7-3------------------------------------]
[--------------------------5-------5------------------------------13--]
[*-----------------------4-----------4-------------------------12----*]GTR 3
[*10-------------------5---------------5-----------------10-14-------*]
[-----10-------------7-------------------7------------10--------------]
[---------12---0-3-7-----------------------7~----8-12-----------------]


[-12-15_14-12----------------------------------------3-7-3------------]
[------p------15_13-12-----------------------------5-------5----------]
[*--------------p------14_12-11------------------4-----------4-------*]GTR 3
[*-----------------------p------14\------------5---------------5-----*]
[---------------------------------sl---------7-------------------7----]
[--------------------------------------0-3-7-----------------------7\-]
                                                                    sl

[-------------------------12-15-14_15-14-12----12---------------------]
[----------------------13---------h---------15----15_b17--------------]
[*------------------12-----------------------------------------------*]GTR 3
[*------------10-14--------------------------------------------------*]
[----------10---------------------------------------------------------]
[-----8-12------------------------------------------------------0-3-7-]


[---------3-7-3-------------------------------------------------------]
[-------5-------5-----------------------------------------------------]
[*----4-----------4--------------------------------------------------*]GTR 3
[*--5---------------5-------------------------7_9-10-9_10-12-10_12-14*]
[-7-------------------7------9_10-12-10_12-14--h------h--------h------]
[-----------------------7~----h--------h------------------------------]


[---------------------14_15-14-12-14-12----14_15-14-12-14-12----14_15-]
[-----------------------h---------------15---h---------------15---h---]
[*7_9-11-9_11-12-11\-------------------------------------------------*]GTR 3
[*-h------h--------sl------------------------------------------------*]
[---------------------------------------------------------------------]
[---------------------------------------------------------------------]


[-14-12-14-12----14_15-14-12-14-12---------------14-15-17-15-14-------]
[-------------15---h---------------15---13-15-17----------------17-15-]
[*-------------------------------------------------------------------*]GTR 3
[*-------------------------------------------------------------------*]
[---------------------------------------------------------------------]
[---------------------------------------------------------------------]


[---------------------------------------------------------------------]
[-13------------------------------------------------12------------<5>-]
[----16-14-12------------------------------9---12-9----12-----<5>----*]GTR 3
[*------------14-12-10-9--------------9------9-----------------------*]
[*-----------------------12-10-9--------10----------------<7>---------]
[--------------------------------12~----------------------------------]


[-<5>-----------------------------------------15-12_7-14-12_7-15-12_7-]
[--------------------------------------------------p-------p-------p--]
[*----------------/5--4-5-5_4-2--------------------------------------*]GTR 3
[*----------------sl-------p----5_4-2--------------------------------*]
[--------------------------------p----3~------------------------------]
[---------------------------------------------------------------------]


[-17-12_7-15-12_7-14-12_7-15-12_7-17-12_7--15-12_6-14-12_6-15-12_6-17-]
[------p-------p-------p-------p-------p--------p-------p-------p-----]
[*-------------------------------------------------------------------*]GTR 3
[*-------------------------------------------------------------------*]
[---------------------------------------------------------------------]
[---------------------------------------------------------------------]


[-12_6-15-12_6-14-12_6-15-12_6-17-12_6--------------------------------]
[---p-------p-------p-------p-------p---------------------------------]
[*-------------------------------------15_12-(9)-15_12-(8)-16_12-(8)-*]GTR 3
[*---------------------------------------p---------p---------p-------*]
[---------------------------------------------------------------------]
[---------------------------------------------------------------------]
                                         ____________________________
                                        [Notes in parantheses is held]
                                        [by right hand.              ]
                                        [____________________________]

[----------------------------------------------------------------------]
[---------------------------------------------------------------17-----]
[*-16_13-(10)-16_13-(10)-17_(10)--18_15-(12)-18_15-(12)-19_(12)-------*]GTR 3
[*---p----------p----------p--------p----------p----------p-----------*]
[----------------------------------------------------------------------]
[----------------------------------------------------------------------]


[----------------------------------------------------------------------]
[--/-17-15-12--/-17-15-11--/-17-15-12--/-17-15-11--/-17-15-12--/-17-15-]
[*-sl----------sl----------sl----------sl----------sl----------sl-----*]GTR 3
[*--------------------------------------------------------------------*]
[----------------------------------------------------------------------]
[----------------------------------------------------------------------]

                                          
[-------------------------------------]
[-11--/-17-15-12--12~-15--------------]
[*----sl--------------15_b16---------*]
[*-----------------------------------*]
[-------------------------------------]
[-------------------------------------]


[**] = See bottom of the page.


[Riff 7]
[---------------------------|----------------------------------------]
[---------------------------|----------------------------------------]
[*--------------------------|---------------------------------------*]GTRS
[*3/4-------------6/7-------|--------------10--9/10-------------6/7-*]1&2
[-1/2-----4/5-----4/5-------|--------------8---7/8------6/7-----4/5--]
[--sl--0--2/3--0---sl--0--0-|-0--0--0-0-0-------sl---0--4/5--0---sl--]
       .   sl  .       .  .   .  .  . . .            .   sl  .      
 ___________________________  _______________________________________
|1.                         ||2.                         (End Riff 7)|
[---------------------------|----------------------------------------]
[---------------------------|----------------------------------------]
[*--------------------------|---------------------------------------*]GTRS
[*-------------------4------|-------------------------4-------------*]1&2
[-2---2------2---2---2------|-------------------------2--------------]
[-0---0------0---0----------|-0---0---0-0-0---0-0-0------------------]
  .   .      .   .            .   .   . . .   . . .


Play Riff 7 1 time

                            _________________________________________
[Riff 8]                   |1-3.                                     | 
[--------------------------|-----------------------------------------]
[--------------------------|-----------------------------------------]
[*-------------------------|----------------------------------------*]GTRS
[*-------------------------|-------3--------------------------------*]1&2
[-2----------3----------2--|-------1--------2----------3----------2--]
[-0----0--0--1----0--0--0--|-0--0-----0--0--0----0--0--1----0--0--0--]
       .  .       .  .       .  .     .  .       .  .       .  .   
                            __________________________________________
                           |4.                            (End Riff 8)|
[--------------------------|------------------------------------------]
[--------------------------|------------------------------------------]
[*-------------------------|--------10----10-------------------------*]GTRS
[*------3------------------|--x/----8-----8--------------------------*]1&2
[-------1------------------|--x/----8-----8---------------------------]
[-0--0---------------------|---sl-------------------------------------]
  .  .

                                                                       _____
[Riff 8.a]                                                            |1.   
[-----------------|---------------------------------------------------|----]
[-----------------|---------------------------------------------------|----]
[*----------------|---------------------------------------------------|---*]GTRS
[*----------------|------------------3--------------------------------|---*]1&2
[-2----------3----|-------2----------1----------2----------3----------|-2--]
[-0----0--0--1----|-0--0--0----0--0-------0--0--0----0--0--1----0--0--|-0--]
       .  .         .  .       .  .       .  .       .  .       .  .    
__________________ ________________________________________________________
                  |2.                                        (End Riff 8.a)|
[-----------------|--------------------------------------------------------]
[-----------------|--------------------------------------------------------]
[*----------------|-------------------------------------------------------*]GTRS
[*------3----3----|-------------------------------------------------------*]1&2
[-------1----1----|-2----------8-------------------------------------------]
[-0--0------------|-0----0--0--6----6-\------------------------------------]
  .  .                   .  .         sl      


Play Riff 3   2 times
Play Riff 2   2 times
Play Riff 3   2 times
Play Riff 1.a 2 times
Play Riff 1.b 2 times


[Final]
[-----]
[-----]
[*---*]GTRS
[*---*]1&2
[--2--]
[--0--]
 [End]
 ________________________________________________________________
|[**] This solo hasn't been updated.  I have not yet modified    |
|the original solo done by Jarle, Alex Skolnick plays them a     |
|little different on FSSD.  I think I may do more of a follow up |
|to make it more complete/updated.                               |
|________________________________________________________________|

Check Out Death8699.com, With More Transcriptions On It:
 http://www.death8699.co
Comments