Tesla - Song & Emotion Chords & Tabs

 

Song & Emotion Chords & Tabs

Tesla Chords & Tabs

Version: 1 Type: Tab 1 rating
1 star 2 stars 3 stars 4 stars 5 stars
comments

Song & Emotion Tab

   
#----------------------------------PLEASE NOTE---------------------------------#
#This file is the author's own work and represents their interpretation of the #
#song. You may only use this file for private study, scholarship, or research. #
#------------------------------------------------------------------------------##

  Here's the TAB for the intro parts (as requested here recently).  This is
how I play it on one guitar (there are actually two guitars playing slightly
different parts).


"Song & Emotion" - Tesla
 --------------


       Dsus2                   G/B                     Cadd9       G/B

----------------0-----------------------0-------------------------------------
-------------3-----3-----------------------3--------------------3-----------3-
----------2-----------2--------------0--------0--------------0-----------0----
-2--3--0-----------------2--3-----0-----------------------2-----------0-------
-------------------------------2-----------------0--2--3-----------2----------
------------------------------------------------------------------------------


 Gm/Bb       A7sus4                  A7

----------------------0--------0--------------0-------------------------------
----------3--------------3--------3--------------2----------------------------
-------0-----------0--------0--------------0--------0-------------------------
----0-----------2-----------------------2-------------------------------------
-1-----------0-----------------------0----------------------------------------
------------------------------------------------------------------------------


  It continues this pattern through for awhile and then when they get to the
line that says, "There was a time, there was a day...", it goes like this:
(I'm starting with the last measure of the above pattern, on the A7 chord)


 A7                    Fmaj7                   C/E
                sl     
----------0---------------------0--------0--------------0--------0------------
-----------------------------1-----1--------1--------1-----1--------1---------
-------0------------------2-----------------------0-----------0---------------
----2--------2--/7--5--3--------------3--------2------------------------------
-0----------------------------------------------------------------------------
------------------------------------------------------------------------------

[ Tab from: http://www.guitartabs.cc/tabs/t/tesla/song_emotion_tab.html ]
Dm                        Dsus2                 Fmaj7
           /P\                           sl   
----------1---0--------0-----------0---------------------0--------0-----------
-------3---------3--------------3---------------------1-----1-----------------
----2---------------2--------2---------------------2-----------2-----2--------
-0------------------------0-----------2--/7--5--3-----------------------------
------------------------------------------------------------------------------
------------------------------------------------------------------------------


 C/E                  Dm                        Dsus2sus4?
                                /P\
----------0--------0-----------1---0------------0-----------------------------
-------1-----1--------------3---------3-----3---3-----------------------------
----0-----------0--------2---------------2------0-----------------------------
-2--------------------0-------------------------------------------------------
------------------------------------------------------------------------------
------------------------------------------------------------------------------



Then for the part that starts at the line:  "Then he starts to play.  Suddenly
the pain slowly fades away...", you do the following:


 A                    G/B

-------------0----------------------------------------------------------------
----------2-----2--------------0--------0-------------------------------------
-------2-----------2--------0-----0-----------0-----0-----0-------------------
----2--------------------0-----------0----------------------------------------
-0--------------------2--------------------3-----2----------------------------
-------------------------------------------------------3-----2----------------


 Em                      A                    G/B

-------------0-----------------------0----------------------------------------
----------------0-----------------2-----2--------------0--------0-------------
-------0-----------0-----------2-----------2--------0-----0-------------------
----------2-----------2-----2--------------------0-----------0----------------
----2--------------------0--------------------2-------------------------------
-0----------------------------------------------------------------------------

                             
                              *
                              Em                     D/F#      G

------------------------------------------0-----------------------------------
----0-----0-----0----------------------------0--------------------------0-----
------------------------------------0-----------0-----------2--------0--------
---------------------------------------2-----------2-----0--------0-----------
-3-----2------------/H\-/P\------2--------------------------------------------
-------------3-----2---3---2--0-----------------------2--------3--------------
                    

 C                                G/D     


-------------0-----------------------------    At this point, go back to the
----------1-----1--------------------------  Em with the * over it and play
-------0-----------0-----------0--------0--  through to the end of this section
----2-----------------2-----2--------0-----  (twice) and then the harder part
-3-----------------------3--------5--------  kicks in.
-------------------------------------------


 Have fun!

--------------------------
|Christopher Bolton      |      
|cbolton@csd475a.erim.org|
--------------------------
Comments