Tesla - Signs Chords & Tabs

 

Signs Chords & Tabs

Tesla Chords & Tabs

Version: 1 Type: Bass Tab 0 ratings
1 star 2 stars 3 stars 4 stars 5 stars
comments

Signs Bass Tab

SIGNS
BY TESLA
TABBED BY James Ryan
neo@floodcity.net

THIS IS FROM THE LIVE VERSION. 

INTRO

G|-9-7--7-----------------|
D|---------9-7------------|
A|------------------------|
E|---------------5--7-----|

VERSES

G|-----------------------------------------------------------|
D|-----------------------------------------------------------|
A|-3--2--------5-5----------------2-2-2-2-2-2----------------|
E|-------5--3------5-5--3-3--5-5--------------3-3-3-3-3-3----|
[ Tab from: http://www.guitartabs.cc/tabs/t/tesla/signs_btab.html ]
G|-------------------------------|
D|-------------------------------|
A|-5-5-5-5-----------------------|
E|---------5-5-5-3-3-3-5-5-5-5---|


CHORUS

G|----------------------------------------------------------|
D|----------------------------------------------------------|
A|-5-5--3--3-3----5-5-5-5-------5-5-5-5---------3-3-3-3--5--|
E|-------------3----------3-3-3---------5-5-5-5-------------|

BRIDGE

G|---------------------------------------------------------------------|
D|---------------------------------------------------------------------|
A|-5--5----------------------------5-5-5-5-5---------------------5--5--|
E|------3-4-5--5-5-5-5-5-3-3-3-3-3-----------5-5-5-5-5-3-3-3-3-3-------|

THAT'S ALL
Comments