Tesla - Only You Chords & Tabs

 

Only You Chords & Tabs

Tesla Chords & Tabs

Version: 1 Type: Tab 0 ratings
1 star 2 stars 3 stars 4 stars 5 stars
comments

Only You Tab

   
  this song is played with capo in the 1st fret.
     Am      G      F      F
|------0------1--------0------0|
|------1------0--------0------0|
|----2--------0--------2-----2-|
|---2---------0------3------3--|
|--0--------2------3-------3---|
|---------3------1--------1----|

[ Tab from: http://www.guitartabs.cc/tabs/t/tesla/only_you_tab.html ]
    Am      G      F      F
|------0------1--------0------0|
|------1------0--------0------0|
|------2------0--------2-----2-|
|---2---------0------3------3--|
|--0--------2------3-------3---|
|---------3------1--------1----|


 I HAVENT FIGURED OUT THE HAMMERS AND PULL OFFS YET BUT IM WORKIN ON IT.
  ANY WAY THAS IT ITS PRETTY EASY.
                                  SUBMITTED BY CHRIS ELLISON
Comments