Tesla - Come To Me Chords & Tabs

 

Come To Me Chords & Tabs

Tesla Chords & Tabs

Version: 1 Type: Tab 0 ratings
1 star 2 stars 3 stars 4 stars 5 stars
comments

Come To Me Tab

   
-------------------------------------------------------------------------------
			     COME TO ME - TESLA
-------------------------------------------------------------------------------
Tabbed by: Brian J Jones
Email: Bjones431@nc.rr.com

Tuning: Standard, Capo @ 2nd Fret
(Em) Inplied chord
(PM) Palm Mute
(Guitar 1) Acoustic Guitar part

Performance Notes:
The strumming patterns and palm mutes are clearly heard on this recording,
listen to it carefully to pick out the different variations. Let the chords
ring out on the intro. For most of the main verse use the palm of your hand
and mute the chords between strums. Let the chords ring out for the pre-chorus
and chorus.

Intro                      (1X)                            (3X)      
e|-------2---|---------------------3---2---|--------------------3---2---3----|
B|-------3---|------0------1-----0-0---3---|----0------1------0-0---3---3----|
G|------0----|------0------0-----0-0---2---|----0------0------0-0---2---2----|
D|-----2-----|------2------2-----0-0---0---|----2------2------0-0---0---0----|
A|----2------|------2------3---------------|----2------3---------------------|
E|---0-------|-----------------------------|---------------------------------|
    Em6/F#         (Em)   (C)    (G)   D      (Em)   (C)      (G)   D  Dsus4
 (Let ring)


 Main verse   Fig.1                                    Repeat Fig.1 with
         You can come around...                     Slight variations (5X)
e|-------------------------------1------2-----3---|--------------------------|
B|------------------1------------0-0----3-----3---|--------------------------|
G|-----0------------0------------0-0----2-----2---|--------------------------|
D|-----2------------2------------0-0----0-----0---|--------------------------|
A|-----2--------3-3-3-----------------------------|--------------------------|
E|-0-0-0----------------------x-3-----------------|--------------------------|
    (Em)  Em     (C)    C      (G)  G   D  Dsus4 
  (PM)         (PM)          (PM)     (PM)    (PM)


Pre-Chorus (Guitar 1)
e|---0-----------0-----------0----------0------------------------------------|
B|---1-----------0-----------1----------0------------------------------------|
G|---0-----------0-----------0----------0------------------------------------|
D|---2-----------2-----------2----------2------------------------------------|
A|---3-----------3-----------3----------3------------------------------------|
E|---------------------------------------------------------------------------|
     C         Csus4         C        Csus4


1st Chorus (Guitar 1)
   Come to me...           Company...                      ...there
e|---------2------0----------------2-----0----0---|----------2----0----------|
B|---3-----3------1----------3-----3-----1----1---|---3------3----1----------|
G|---0-----2------0----------0-----2-----2----0---|---0------2----0----------|
D|---0-----0------2----------0-----0-----2----2---|---0------0----2----------|
A|---2------------3----------2-----------0----3---|---2-----------3----------|
E|------------------------------------------------|--------------------------|
    (G)    D      C         (G)    D     Am   C      (G)     D    C 
                                                                  (Let ring)


Fig.1
       Ain't nothing like a friend...                
e|----------------------------------1------2-----3---------------------------|
B|------------------------1---------0-0----3-----3---------------------------|
G|-------0----------------0---------0-0----2-----2---------------------------|
D|-------2----------------2---------0-0----0-----0---------------------------|
A|-------2------------3-3-3--------------------------------------------------|
E|---0-0-0---------------------x-3-------------------------------------------|
      (Em)             (C)      (G)        D   Dsus4 
    (PM)             (PM)     (PM)       (PM)

                                                       Repeat Fig.1 with
      Who’s always there to the end...                Slight variations (4X)
e|-----------------------------------1------2---------|----------------------|
B|------------------------1----------0-0----3---------|----------------------|
G|-------0----------------0----------0-0----2---------|----------------------|
D|-------2----------------2----------0-0----0---------|----------------------|
A|-------2------------3-3-3---------------------------|----------------------|
E|---0-0-0----------------------x-3-------------------|----------------------|
      (Em)             (C)       (G)        D   
     PM               PM        PM

Pre-Chorus (Guitar 1)
e|---0-----------0-----------0----------0------------------------------------|
B|---1-----------0-----------1----------0------------------------------------|
G|---0-----------0-----------0----------0------------------------------------|
D|---2-----------2-----------2----------2------------------------------------|
A|---3-----------3-----------3----------3------------------------------------|
E|---------------------------------------------------------------------------|
     C         Csus4         C        Csus4

[ Tab from: http://www.guitartabs.cc/tabs/t/tesla/come_to_me_tab.html ]
2nd Chorus (Guitar 1)
   Come to me...           Company...                       
e|---------2------0---|------------2-----0----0--|------------2-----0----0---|
B|---3-----3------1---|------3-----3-----1----1--|------3-----3-----1----1---|
G|---0-----2------0---|------0-----2-----2----0--|------0-----2-----2----0---|
D|---0-----0------2---|------0-----0-----2----2--|------0-----0-----2----2---|
A|---2------------3---|------2-----------0----3--|------2-----------0----3---|
E|--------------------|--------------------------|---------------------------|
    (G)    D      C         (G)    D     Am   C        (G)    D     Am   C     
                                                                  

                              (Guitar solo)                Repeat (1X)
               ...whoa yeah   Bridge Part 1               Bridge Part 1 
e|-------------------------|--0-----0-----3-----2-----|----------------------|
B|---3------3----1---------|--1-----1-----3-----3-----|----------------------|
G|---0------2----0---------|--2-----0-----0-----2-----|----------------------|
D|---0------0----2---------|--2-----2-----0-----0-----|----------------------|
A|---2-----------3---------|--0-----3-----2-----------|----------------------|
E|-------------------------|--------------3-----------|----------------------|
    (G)    (D)  (C)           Am    C     G     D


                                 
   Bridge Part 2 (1/2 Tempo)                            Repeat (2X)
  If something...                                      Bridge Part 2
e|--0--------------0-----------3-----------2----|----------------------------|
B|--1--------------1-----------3-----------3----|----------------------------|
G|--2--------------0-----------0-----------2----|----------------------------|
D|--2--------------2-----------0-----------0----|----------------------------|
A|--0--------------3-----------2----------------|----------------------------|
E|-----------------3-----------3----------------|----------------------------|
    Am             C           G           D


 Main verse   Fig.1                                    Repeat Fig.1 with
         You can come around...                     Slight variations (3X)
e|-------------------------------1------2-----3---|--------------------------|
B|------------------1------------0-0----3-----3---|--------------------------|
G|-----0------------0------------0-0----2-----2---|--------------------------|
D|-----2------------2------------0-0----0-----0---|--------------------------|
A|-----2--------3-3-3-----------------------------|--------------------------|
E|-0-0-0----------------------x-3-----------------|--------------------------|
    (Em)  Em     (C)    C      (G)  G   D  Dsus4 
  (PM)         (PM)          (PM)     (PM)    (PM)


Pre-Chorus (Guitar 1)
e|---0-----------0-----------0----------0------------------------------------|
B|---1-----------0-----------1----------0------------------------------------|
G|---0-----------0-----------0----------0------------------------------------|
D|---2-----------2-----------2----------2------------------------------------|
A|---3-----------3-----------3----------3------------------------------------|
E|---------------------------------------------------------------------------|
     C         Csus4         C        Csus4


3rd Chorus (Guitar 1)                                Repeat 3rd chorus with
   Come to me...           Company...                Slight variations (2X)       
e|---------2------0----------------2-----0----0---|--------------------------|
B|---3-----3------1----------3-----3-----1----1---|--------------------------|
G|---0-----2------0----------0-----2-----2----0---|--------------------------|
D|---0-----0------2----------0-----0-----2----2---|--------------------------|
A|---2------------3----------2-----------0----3---|--------------------------|
E|------------------------------------------------|--------------------------|
    (G)    D      C         (G)    D    Am    C     
                                        

   Come to me...               ...I'll be there     Outro         
e|---------2------0----------------2-----0--------|--------------------------|
B|---3-----3------1----------3-----3-----1--------|--0--------1-----0--------|
G|---0-----2------0----------0-----2-----0--------|----0---0--0-0-----0---0--|
D|---0-----0------2----------0-----0-----2--------|------2----2---2-----2----|
A|---2------------3----------2-----------3--------|--3--------3-----3--------|
E|------------------------------------------------|--------------------------|
    (G)    D      C         (G)    D    (C)        (Csus4)   (C)    (Csus4)
                                       (Let ring)  (Pluck with pick and finger)

Outro
e|---------------------------------------------------------------------------|
B|--1-----0--------1---------------------------------------------------------|
G|--0-0-----0--0---0---------------------------------------------------------|
D|--2---2----2-----2---------------------------------------------------------|
A|--3-----3--------3---------------------------------------------------------|
E|---------------------------------------------------------------------------|
    (Csus4)        C    
                  (let ring)

| /  slide up
| \  slide down
| h  hammer-on
| p  pull-off
| ~  vibrato
| +  harmonic
| x  Mute note
===============================================================================
Comments