Terrorvision - Pretend Best Friend Chords & Tabs

 

Pretend Best Friend Chords & Tabs

Terrorvision Chords & Tabs

Version: 1 Type: Tab 0 ratings
1 star 2 stars 3 stars 4 stars 5 stars
comments

Pretend Best Friend Tab

Here is the guitar tab for "Pretend Best Friend" E-mail me at
kendohmassif.fsmail.net with comments etc!

INTRO
[ Tab from: http://www.guitartabs.cc/tabs/t/terrorvision/pretend_best_friend_tab.html ]
e-----------------------------------
b-10-10-----10-10-------------------
g-9--9------9--9--------------------
d-7--7------7--7--------------------
a-0--0--8-9-0--0--8-9--------7------
e---------------------0-0-8-9--8-7-6

CHORUS-slight palm mute
e---------------------------------
b---------------------------------
g---------------------------------
d-----------------2-2-------------
a---------2-2---------3-3-2-2-----
d-0-0-3-0-----3-2-------------3-3-

There you go the main guiyar parts for this catchy tune
Comments