Terrorvision - New Policy One Chords & Tabs

 

New Policy One Chords & Tabs

Terrorvision Chords & Tabs

Version: 1 Type: Bass Tab 0 ratings
1 star 2 stars 3 stars 4 stars 5 stars
comments

New Policy One Bass Tab

Bass tab for Don't shoot my dog by Terrorvision.

Sorry, I can only work out the intro/verse.  I'll send in the rest if and when I get it sorted.

G|--------------------|
D|--------------------|
A|----------------0-2-|
E|--0-0-3-0-3-0-3-----|
----------
X-Sun-Data-Type: default
X-Sun-Data-Description: default
X-Sun-Data-Name: new_policy_one.btab
X-Sun-Content-Lines: 65


Bass tab for New Policy One


I'm pretty sure this isn't 100% accurate, but I'm equally certain that parts of it are perfect, so...


Intro/Verse
				  x3
G|---------------------------------|---------------------------------|
D|---------------------------------|-----------------9-9-9-9-9-7-----|
A|-5-5-5-5-5-5-5-5-----------------|-5-5-5-5-5-5-5-5-------------9-7-|
E|-----------------7-7-7-7-7-7-7-7-|---------------------------------|

[ Tab from: http://www.guitartabs.cc/tabs/t/terrorvision/new_policy_one_btab.html ]
Chorus
					x2
G|---------------------------------------|
D|---------------------------------------|
A|-5-5--8-8-7---------5-5--8-8-7---------|
E|------------7-7-7-5------------7-7-7-9-|


Bridge

  And I felt like....		       x4
G|--------------------------------------|
D|-----------7-7-7-10--9-7--------------|
A|-------7s7---------------10--10-10-10-|
E|--------------------------------------|


Solo
						x2
G|----------------------------------------------|
D|----------------------------------------------|
A|-5-5-8--7-5------------5-5-8--7-5----------8--|
E|------------7-7-8--8-7------------7-7-8--8----|


1st chorus after solo
				  x4
G|---------------------------------|
D|---------------------------------|
A|---5---5---5---5---8---8---8---8-|
E|-0---0---0---0---0---0---0---0---| (not certain about this bit)


Chorus (3rd a/solo)
		      x4
G|---------------------|
D|---------5-5-5-8-(8)-|
A|-5-5-8-8-------------| 
E|---------------------| Play note in brackets 4th time only


Outro

G|-----------------------|
D|-----------------------|
A|-5-5-8--7-5------------|
E|------------7-7-8--8-7-| Repeat (and fade out)


Notation:	s   Stacatto (short) note
Comments