Terrorvision - Alice Whats The Matter Chords & Tabs

 

Alice Whats The Matter Chords & Tabs

Terrorvision Chords & Tabs

Version: 1 Type: Bass Tab 0 ratings
1 star 2 stars 3 stars 4 stars 5 stars
comments

Alice Whats The Matter Bass Tab

Bass tab for Alice, what's the matter by Terrorvision


Verse

G|-----|--------------------------------|       |-------------------------------
D|-----|----------------------------0-2-|Repeat |----------------------9-----0-2
A|-1-3-|-2--2-2-0-0-0-0---------0-2-----|3 times|-2--2-2-5-5-5-5-7-7-7---0-2----
E|-----|----------------3-3-3-3---------|       |-------------------------------
 |Intro|
 |only |


Pre-Chorus

Feels like a Saturday...

G|--------------------4-4-4---4-(4)-|
D|----------------------------------|  Repeat 4 times, last time change the 
A|--------------2--2--------2-------|  -(4)- to -2-
E|-0--0-0-3-3-0---------------------|


1st Chorus

(Alice whats the matter)x2     | Alice.....
[ Tab from: http://www.guitartabs.cc/tabs/t/terrorvision/alice_whats_the_matter_btab.html ]
G|---------==R==---------------|-----------------|
D|---------==R==---------------|-----------------|
A|---------==R==----------1--3-|-5-(x27)---1--3--|
E|---------==R==---------------|---------0-------|


2nd Chorus

G|------------------------------------------------|
D|------------------------------------------------|
A|-5-5--------5-5---------5-5---------5-5---1--3--|  x2
E|------------------------------------------------|



Guitar solo

Same as verse, except after the three repeats, play

G|--------------------------------|
D|--------------------------------|
A|-2--2-2-5-5-5-5-7-7-7-------5-0-|
E|----------------------0-5-7-----|


After solo

            Alice.....

G|---------------------------------|        |----------|
D|---------------------------------| repeat |------0-2-|
A|-7-7-----------------------------| twice  |--0-2-----|
E|------3------------------0--0--3-|        |----------|



Outro

Play 2nd chorus, then

G|-----------------------------------|
D|-----------------------------------|
A|-5-5--------5-5---------5--5-5-6-6-|
E|-----------------------------------|

Comments