Terrorgruppe - Wir Mussen Raus Chords & Tabs

 

Wir Mussen Raus Chords & Tabs

Terrorgruppe Chords & Tabs

Version: 1 Type: Bass Tab 0 ratings
1 star 2 stars 3 stars 4 stars 5 stars
comments

Wir Mussen Raus Bass Tab

   
Terrorgruppe - Wir m?ssen raus

By: Punkrockfan (markus.heidelberg@web.de)


  Verse                          Chorus A                            Chorus B

G:---------------------------------------------------------------------------|
D:--0-------------0-0-4-0----------------------------------------------------|
A:2---2-0-------4---------0-0----5-5-5-5-----------------------------5-5-5-5-|
E:--------2-2---------------------------3-5-5-5-5-2-2-2-2-3-3-3-3------------|
                                 Wir m?ssen raus...                 Bis einer

G:---------------------------------------------------------------------------|
D:7-7-5-4--------------------------------------------------------------------|
A:--------0-0-0-0-0-0-0-0-2-2-2-2-2-2-2-2------------------------------------|
E:----------------------------------------3-3-3-3-3-3-3-3-(3-3-3-3-5--5--5)--|
   sich beschwert...                                      ()=2nd time
[ Tab from: http://www.guitartabs.cc/tabs/t/terrorgruppe/wir_mussen_raus_btab.html ]
  Bridge                                                            Chorus C
                                                                    =Chorus A
G:---------------------------------------------------------------------------|
D:1xVerse-Riff-----5-4------------0-0-4-0-----------3xVerse-Riff-------------|
A:---------------------5-0------4---------0-0-----0--------------------------|
E:-------------------------2-2-----------------------------------------------|
                                                                    Uuuuuuuuu


--------------------------------------------------------------------

This TAB transcription was created using TAB MASTER version 1.0
If you enjoy using this program, please consider telling the author
about it: Ofir Zwebner, e-mail: ofirz1@ccsg.tau.ac.il
                    snail-mail: Ehoud 10, Tel Aviv, 69936, Israel

This program is freeware, but it took me some work to make it, so
your financial contribution is welcome.
Comments