Terrorgruppe - Nazis Im Haus Chords & Tabs

 

Nazis Im Haus Chords & Tabs

Terrorgruppe Chords & Tabs

Version: 1 Type: Tab 0 ratings
1 star 2 stars 3 stars 4 stars 5 stars
comments

Nazis Im Haus Tab

www.terrorgruppe.com

Song: NAZIS IM HAUS	
Artsit: Terrorgruppe
Album: Blechdose
Tabbed by: Dave Toldo (oi105@hotmail.com)
                         

Intro:
E-|---------------------------------------------------------------------|
B-|---------------------------------------------------------------------|
G-|--11-12-14--14-12-11--12-11-12--14-12-11-----------------------------|3x
D-|--0--0--0---0--0--0---0--0--0---0--0--0------------------------------|
A-|---------------------------------------------------------------------|
E-|---------------------------------------------------------------------|
 

Intro ending:
E-|---------------------------------------------------------------------|
B-|---------------------------------------------------------------------|
G-|--11-12-14--14-12-11-12-11-------------------------------------------|
D-|--0--0--0---0--0--0--0--0--------------------------------------------|
A-|---------------------------------------------------------------------|
E-|---------------------------------------------------------------------|
 

Bridge 1:
E-|---------------------------------------------------------------------|
B-|---------------------------------------------------------------------|
G-|--9---7---6---4-4-4-4------------------------------------------------|2x
D-|--9---7---6---4-4-4-4--4-4-4-4--5-5-5-5------------------------------|
A-|--7---5---4---2-2-2-2--4-4-4-4--5-5-5-5------------------------------|
E-|-----------------------2-2-2-2--3-3-3-3------------------------------|
 

E-|---------------------------------------------------------------------|
B-|---------------------------------------------------------------------|
G-|--9---7---6----------------------------------------------------------|
D-|--9---7---6----------------------------------------------------------|
A-|--7---5---4----------------------------------------------------------|
E-|---------------------------------------------------------------------|

Verse:
E-|---------------------------------------------------------------------|
B-|---------------------------------------------------------------------| 
G-|--4-4-4-4------------------------------------------------9-9-9-9-----| 
D-|--4-4-4-4--4-4-4-4--5-5-5-5--7-7-7-7--9-9-9-9--4-4-4-4---9-9-9-9-----| 
A-|--2-2-2-2--4-4-4-4--5-5-5-5--7-7-7-7--9-9-9-9--4-4-4-4---7-7-7-7-----| 
E-|-----------2-2-2-2--3-3-3-3--5-5-5-5--7-7-7-7--2-2-2-2---------------| 
  									  
									 2x 
E-|---------------------------------------------------------------------| 
B-|---------------------------------------------------------------------| 
G-|--7-7-7-7--6-6-6-6--7-7-7-7--6-6-6-6---------------------------------| 
D-|--7-7-7-7--6-6-6-6--7-7-7-7--6-6-6-6---------------------------------| 
A-|--5-5-5-5--4-4-4-4--5-5-5-5--4-4-4-4---------------------------------| 
E-|---------------------------------------------------------------------|

[ Tab from: http://www.guitartabs.cc/tabs/t/terrorgruppe/nazis_im_haus_tab.html ]
Chorus:
E-|---------------------------------------------------------------------|
B-|---------------------------------------------------------------------|
G-|----7-7-7-7----9-9-9-9-----------------------------------------------|4x
D-|----7-7-7-7----9-9-9-9----7-7-7-7----5-5-5-5-------------------------|
A-|----5-5-5-5----7-7-7-7----7-7-7-7----5-5-5-5-------------------------|
E-|--------------------------5-5-5-5----3-3-3-3-------------------------|


Bridge:
E-|---------------------------------------------------------------------|
B-|---------------------------------------------------------------------|
G-|--11-12-14--14-12-11--12-11-12--14-12-11-----------------------------|3x
D-|--0--0--0---0--0--0---0--0--0---0--0--0------------------------------|
A-|---------------------------------------------------------------------|
E-|---------------------------------------------------------------------|
 

E-|---------------------------------------------------------------------|
B-|---------------------------------------------------------------------|
G-|--11-12-14--14-12-11-12-11-------------------------------------------|
D-|--0--0--0---0--0--0--0-0---------------------------------------------|
A-|---------------------------------------------------------------------|
E-|---------------------------------------------------------------------|


E-|---------------------------------------------------------------------|
B-|---------------------------------------------------------------------|
G-|--9---7---6---4-4-4-4------------------------------------------------|2x
D-|--9---7---6---4-4-4-4--4-4-4-4--5-5-5-5------------------------------|
A-|--7---5---4---2-2-2-2--4-4-4-4--5-5-5-5------------------------------|
E-|-----------------------2-2-2-2--3-3-3-3------------------------------|
 

E-|---------------------------------------------------------------------|
B-|---------------------------------------------------------------------|
G-|--9---7---6----------------------------------------------------------|
D-|--9---7---6----------------------------------------------------------|
A-|--7---5---4----------------------------------------------------------|
E-|---------------------------------------------------------------------|

-Verse

-Chorus

-Solo

Brigde:
E-|---------------------------------------------------------------------|
B-|---------------------------------------------------------------------|
G-|--11-12-14--14-12-11--12-11-12--14-12-11-----------------------------|3x
D-|--0--0--0---0--0--0---0--0--0---0--0--0------------------------------|
A-|---------------------------------------------------------------------|
E-|---------------------------------------------------------------------|
 

E-|---------------------------------------------------------------------|
B-|---------------------------------------------------------------------|
G-|--11-12-14--14-12-11-12-11-------------------------------------------|
D-|--0--0--0---0--0--0--0--0--------------------------------------------|
A-|---------------------------------------------------------------------|
E-|---------------------------------------------------------------------|



E-|---------------------------------------------------------------------|
B-|---------------------------------------------------------------------|
G-|---9---7--6--7-------------------------------------------------------|5x
D-|---9---7--6--7-------------------------------------------------------|
A-|---7---5--4--5-------------------------------------------------------|
E-|---------------------------------------------------------------------|
 
-Chorus
Comments