Terracotta Doggies - Cigar Church Elves Chords & Tabs

 

Cigar Church Elves Chords & Tabs

Terracotta Doggies Chords & Tabs

Version: 1 Type: Tab 0 ratings
1 star 2 stars 3 stars 4 stars 5 stars
comments

Cigar Church Elves Tab

   
This is some of my bands stuff....we're only about 3 months old and don't have any 
recordings but i like this song...so im posting it...enjoy.

Standard Tuning
|-e-|
|-B-|
|-G-|
|-D-|
|-A-|
|-e-|

/=slide up
\=slide down
h=hammer on
p=pull off
^=bend(the step will be in parentheses)
rr=let ring

INTRO:(riff A.)
Moderately fast rock, with a hint of reggae. 
                                             (rpt. 3 times)
e|---------------------------------------------------------
B|---------------------------------------------------------
G|---------------------------------------------------------
D|---------------------------------------------------------
A|-2h4-44--4-4p22--2h4-44-4/55-2h4-44--4-4p22--2h4-44-4/77-
E|-0rr-00--0-0-rr--0rr-00-0rr0-0rr-00--0-0-rr--0rr-00-0rr0-

(riff B.)
e|---------------------------------------------------------
B|---------------------------------------------------------
G|---------------------------------------------------------
D|---------------------------------------------------------
A|-5/7-77-7-7/9-9-9\7-77-7\5-55--2224-2225-2224-2225-2220--
E|-3/5-55-5-5/7-7-7\5-55-5\3-33--0002-0003-0002-0003-0000--

Solo(riff C.)
e|---------------------------------------------------------
B|---------------------------------------------------------
G|---------------------------------------------------------
D|--------------------------------------------------14h16--
A|-----7h9-9/11-11-----7h9-77--7/9-9/12-12/14-14h16--------
E|-7h9-------------7h9-------------------------------------
[ Tab from: http://www.guitartabs.cc/tabs/t/terracotta_doggies/cigar_church_elves_tab.html ]
e|---------------------------------------------------------
B|---------------------------------------------------------
G|-14h16----14h16-16/18-18/20-20\18-18-18p16----16-18^(1)--
D|-------16----------------------------------18------------
A|---------------------------------------------------------
E|---------------------------------------------------------

e|---------------------------------------------------------
B|---------------------------------------------------------
G|-18\16-16\14-14\12-10-10h12------------------------------
D|----------------------------12-10------------------------
A|----------------------------------10h12------------------
E|----------------------------------------12-10-10\7-7h9---

e|---------------------------------------------------------
B|---------------------------------------------------------
G|---------------------------------------------------------
D|---------------------------------------------------------
A|-----------0-----2225-2227-2225-2227-2225-2220----3-2-3-5
E|-7-5-3h5-3-0-----0000-0000-0000-0000-0000-0000----1-0-1-3
(end solo)

(riff. D)
e|---------------------------------------------------------
B|---------------------------------------------------------
G|---------------------------------------------------------
D|---------------------------------------------------------
A|-2h444-4h666-4p222-2h000-2h444-2p000-3333-5555-7777-5555\
e|-0rr00-0rr00-0rr00-0rr00-0rr00-0rr00-1111-3333-5555-3333\


song pattern:

riff A-3 times

riff B-twice

riff A-twice

riff B-twice

riff C-once

riff A-once

riff B-twice

riff C-twice

enjoy...
-The Terracotta Doggies
Comments