Teri Desario - Fallen Chords & Tabs

 

Fallen Chords & Tabs

Teri Desario Chords & Tabs

Version: 1 Type: Tab

Fallen Tab

   
hey guys! try nio po e2ng tab ko guitar instrumental ng fallen astig.
first tym q lng poh mg-post d2, hirap kasing gumawa ng tab e, pero try
try nio to! pnghirapan ko 2! pki-rate nlng poh =>
hoy! ung mga 7thSTRING dyan!
hi! loves!(cristina odon caalim) para sau to!


Title:Fallen
Artist: Teri Del Sario
standard tuning: EADGBe

INTRO: 2X


     D                                Bm                E         Tap

e|---------5-----5---------3-----3---------2-----2----3-0--------(12)--|
B|---7--------7------5--------5-------3-------3------------------(12)--|
G|------7---------------6----------------4-----------------------------|
D|---0---------------0-------------------------------------------------|
A|------------------------------------2--------------------------------|
E|---------------------------------------------------------------------|

VERSE:
     GM7        F#m7               GM7              F#m7

e|-----2-0----------------2----------2-0-2----5/7---5-------|
B|---------3-0----------2---2--------------------------2----|
G|--------------------2-------2--------------------------2--|
D|------------------4---------------------------------------|
A|----------------4-----------------------------------------|
E|---3----------2------------------3----------------2-------|

        G9 (higher fret)
[ Tab from: http://www.guitartabs.cc/tabs/t/teri_desario/fallen_tab.html ]
|--------9---10-10--|
|-------------------|
|-------------------|
|-------------------|
|-3/10--10---9--9---|
|-------------------|


    GM7    F#m7  G

e|--0-2----5-5---3---2---0------------|
B|-----------------0---0---0---3-5----|
G|------------------------------------| 2X  then chorus
D|------------------------------------|
A|------------------------------------|
E|--3------2-2---3-------------2-4----|


CHORUS:

                   F#m7              Bm

e|------2-3--5/7---5------5/7--5-2------2------|
B|---5---------------2---------------33---3----|
G|---------------------2-------------44-----4--|
D|---------------------------------------------|
A|-----------------------------------22--------|
E|---4-------------2------2/4--2-2-------------|

       Bm(higher fret)
                 G    F#m7

---------10-10---0-2--55--------|
--------------------------------|
--------------------------------|
--------------------------------|
--------------------------------|
--3/7--7---------3----22--------|


 (when I fall...In, love   )


    E F#m7 G    A7

e|---02--3-----------0--0h2p0-|
B|-----------------2----------|
G|---------------0------------|  then intro
D|-------------2--------------|
A|-----------0----------------|
E|---02--3--------------------|


thats all...

paulit-ulit lang poh lahat yan kau n poh bhala sa rythm..
txt me 09195188399 or email me at mhaark29@yahoo.com or mark_cristina29@yahoo.com
-mhaark