Terasbetoni - Taivas Ly Tulta Chords & Tabs

 

Taivas Ly Tulta Chords & Tabs

Terasbetoni Chords & Tabs

Version: 2 Type: Tab 0 ratings
1 star 2 stars 3 stars 4 stars 5 stars
comments

Taivas Ly Tulta Tab

|-----------------------11-------------------5-4-b8-7---9-12-11-9------------------------------------------|
|----------5--4------------------------5-4------------------------12-10-9---------------------------(5)----|
|--6---4-6------6-2-1---------6----4-6-----6------------------------------11-9-8-9-11-9-8-----9-8h9-----4--|
|---------------------4-------------------------------------------------------------------11---------------|
|----------------------------------------------------------------------------------------------------------|
|----------------------------------------------------------------------------------------------------------|
[ Tab from: http://www.guitartabs.cc/tabs/t/terasbetoni/taivas_ly_tulta_tab_ver_2.html ]
|--------------7h9p7-7h9p7---7h9p7-7h9p7---12-11-9-7--8-10-b10-10-8-10-12-b12---12-14-15--14h15p14--11\----|
|--------5-7-9-------------9-------------9-----------------------------------------------------------------|
|--6-8-9---------------------------------------------------------------------------------------------------|
|----------------------------------------------------------------------------------------------------------|
|----------------------------------------------------------------------------------------------------------|
|----------------------------------------------------------------------------------------------------------|







                                      By: P. Matiila
Comments