Terasbetoni - Taivas Ly Tulta Chords & Tabs

 

Taivas Ly Tulta Chords & Tabs

Terasbetoni Chords & Tabs

Version: 1 Type: Tab 0 ratings
1 star 2 stars 3 stars 4 stars 5 stars
comments

Taivas Ly Tulta Tab

   
#----------------------------------PLEASE NOTE--------------------------------#
#This file is the author's own work and represents their interpretation of the#
#song. You may only use this file for private study, scholarship, or research.#
#-----------------------------------------------------------------------------#

Artist - Teräsbetoni
Song - Taivas Lyö Tulta
Tabbed by - Wyldechild

Tuning - Halfstep down (Eb Ab Db Gb Bb Eb)

 Main figure   (you can figure out the rythm by yourself)
|----------------------------------------------------|
|----------------------------------------------------|
|-------------------6---------------------------8--8-|
|-------------------6------------------------6--8--8-|
|-4--4-4-4-4--4-4-4-4---------------------3--6--6--6-|
|------------------------1--1-1-1-1-1-1-1-1--4-------|

"heikoille voi olla liikaa voima metallin..."
|----------------------------------------------------------------|
|----------------------------------------------------------------|
|-6------------8---------------5--5--5--5--5--5-----5~~~~~~~~----|
|-6------------8---------------5--5--5--5--5--5------------------|
|-4------------6---------------3--3--3--3--3--3------------------|
|----------------------------------------------------------------|
[ Tab from: http://www.guitartabs.cc/tabs/t/terasbetoni/taivas_ly_tulta_tab.html ]
(chorus)
"Taivas lyö tulta, yläpuolellamme..."
|----------------------------------------------------------------|
|----------------------------------------------------------------|
|--10--10-10--12-12-13-10--13--13-13--15--13-15p13---------------|
|--------------------------------------------------13~-----------|
|----------------------------------------------------------------|
|----------------------------------------------------------------|
|
|----------------------------------------------------------------|
|----------------------------------------------------------------|
|------------------------------------6---------------------------|
|--3---------------------------------6---------------------------|
|--3---------------------------------4---------------------------|
|--1-------------------------------------------------------------|


|----------------------------------------------------------------|
|----------------------------------------------------------------|
|--13--13-13---15-15---17-17---15--13h15~------------------------|
|----------------------------------------------------------------|
|----------------------------------------------------------------|
|----------------------------------------------------------------|
|
|----------------------------------------------------------------|
|----------------------------------------------------------------|
|----------------------------------8-----------------------------|
|--6-------------------------------8-----------------------------|
|--6-------------------------------6-----------------------------|
|--4-------------------------------------------------------------|


Fill
|--------------------------------|
|--------------------------------|
|--------------------------------|
|--------------------------------|
|-8--8-8-8--8-11-10-8----8-10-8~-|
|---------------------10---------|

figure out by yourself the solo I ain't got the time to tab it out
it is easy just play the same notes that are in the chorus!!!!!!!! 
the solo starts with this:
|---------------------|
|---------------------|
|---------------------|
|-12-12-12-15-14-12---|
|---------------------|
|---------------------|



note: after the solo the chorus changes, move it 2 frets up the neck
so instead of  --6--  play  --8-- etc.
               --6--        --8--
               --4--        --6--

song ends with this fill
|----------------------------------------|
|----------------------------------------|
|----------------------------------------|
|----------------------------------------|
|-10--10-10-10--10-13-12-10----10-12-10~-|
|---------------------------12-----------|
Comments