Tenth Avenue North - By Your Side Chords & Tabs

 

Tenth Avenue North Chords & Tabs

Version: 3 Type: Tab 0 ratings
1 star 2 stars 3 stars 4 stars 5 stars
comments

By Your Side Tab

   
By Your Side-Tenth Avenue North


I had to play this song at my graduation on acoustic, and I found the other tabs for 
song difficult to play on a cramped fretboard, so I re-tabbed it and made it easier to play.

Any questions, comments, complaints? Email me afi_luvr95@comcast.net

Melodies: (used in intro and verses)

G Melody
e|-----------------------------------|
B|------3---0---3-------3---0---3----|
G|--0-0---0---0---0-0-0---0---0---0--|
D|-----------------------------------|
A|-----------------------------------|
E|-----------------------------------|

Em Melody
e|-----------------------------------|
B|------0---0---0-------0---0---0----|
G|----0---0---0---0---0---0---0---0--|
D|--2---------------2----------------|
A|-----------------------------------|
E|-----------------------------------|


D Melody
e|-----------------------------------|
B|----------0---------------0--------|
G|----0-2-0---0-2-0---0-2-0---0-2-0--|
D|--0---------------0----------------|
A|-----------------------------------|
E|-----------------------------------|

C Melody
e|------------------------------------|
B|-----------0-----------------0------|
G|----0-0-0-----0-0-0----0-0-0---0-0-0|
D|------------------------------------|
A|--3------------------3--------------|
E|------------------------------------|


Chords: (used in chorus, bridge, and outro)
   G	      Em	     D	   C
[ Tab from: http://www.guitartabs.cc/tabs/t/tenth_avenue_north/by_your_side_tab_ver_3.html ]
e|-3-|    e|-0-|    e|-2-|    e|-0-|
B|-0-|    B|-0-|    B|-3-|    B|-1-|
G|-0-|    G|-0-|    G|-2-|    G|-0-|
D|-0-|    D|-2-|    D|-0-|    D|-2-|
A|-2-|    A|-2-|    A|-0-|    A|-3-|
E|-3-|    E|-0-|    E|---|    E|-0-|

Intro (melodies) Gx1 Emx1 Dx1 Cx1 Gx1

Verse 1 (melodies) Gx2 Emx2 Dx1 Cx1
		       Gx2
			 Gx2 Emx2 Dx1 Cx1
			 Gx1

Chorus (chords, listen to the song to develop a strumming pattern)
	Em C G D Em C G D
G Melody x2

Verse 2 (melodies) Gx2 Emx2 Dx1 Cx1
		       Gx2

Chorus (chords-same strumming pattern as first chorus)
Em C G D Em C G D Em C G D Em C G D

Bridge (chords-play each chord twice as long as in chorus-same strumming pattern)
D Em C D D Em C D

Chorus (chords-same strumming pattern as previous choruses)
Em C G D Em C G D Em C G D Em C G D

Outro-you can make up your own, or just play a G chord after the last chorus)


I hope this tab was easy to understand! Happy playing!
Comments