Tenor7 - Sliver In My Neck Chords & Tabs

 

Sliver In My Neck Chords & Tabs

Tenor7 Chords & Tabs

Version: 1 Type: Tab 0 ratings
1 star 2 stars 3 stars 4 stars 5 stars
comments

Sliver In My Neck Tab

Sliver in my Neck-Tenor7

Intro:
E----------------------------------------------------------------
B----------------------------------------------------------------
G----------------------------------------------------------------
D-----------0-----0-----(Repeat this two times)------------------
A----10-11------0---7-3------------------------------------------
D-0-----------0--------------------------------------------------

E-------------------------------------------------|----------1---
B----------------------(Repeat this two times)----|--------3-----
G-------------------------------------------------|------2-------
D-----3---------3-------------1---------1---------|----0---------
A---3---7-5---3---7-5-7-3---1---5-3---1---5-3-5-1-|--0-----------
D-3---------3-------------1---------1-------------|0-------------
[ Tab from: http://www.guitartabs.cc/tabs/t/tenor7/sliver_in_my_neck_tab.html ]
Verses:
E-10-10-10-10--10-10-10-10--1-1-1-1--1-1-1-1---------------------
B-10-10-10-10--11-11-11-11ó-3-3-3-3--3-3-3-3---------------------
G-10-10-10-10--10-10-10-10--2-2-2-2--3-3-3-3---------------------
D----------------------------------------------------------------
A--------(on the off beat)---------------------------------------
D----------------------------------------------------------------

Chorus:
E----------------------------------------------------------------
B--(itís a weird rhythm, but these are the chords)---------------
G----------------------------------------------------------------
D-3-3-3-3-1-1-1-1-10-10-10-10-8-8-8-8----------------------------
A-3-3-3-3-1-1-1-1-10-10-10-10-8-8-8-8----------------------------
D-3-3-3-3-1-1-1-1-10-10-10-10-8-8-8-8----------------------------

Solo:
Eó17p13p10-17p13p10-(x2)-----------------------------------------
B------------------------17p13p10-17p13p10-(x2)------------------
G----------------------------------------------------------------
D----------------------(Repeat twice)----------------------------
A----------------------------------------------------------------
D----------------------------------------------------------------

E----------------------------------------------------------------
B-18p13p10-18p13p10-15p13p10-15p13p10-17p13p10-17p13p10----------
G-------------------------------------\-----(x2)------/----------
D----------------------------------------------------------------
A---------------------(Repeat twice)-----------------------------
D----------------------------------------------------------------
Comments