Tennis - Pigeon Chords & Tabs

 

Pigeon Chords & Tabs

Tennis Chords & Tabs

Version: 1 Type: Tab 0 ratings
1 star 2 stars 3 stars 4 stars 5 stars
comments

Pigeon Tab

Artist: Tennis
Song:   Pigeon
Album:  Cape Dory (2011)

Tabbed by: Ryan L.
Email: (n/a)
Tuning: Standard (EADGBe)

Preface: This song is fairly simple to play!
Listen to the record to the the timing right
and just use this tab as a rough guide as to
what is being played.

Enjoy =)

----------------------------------------------------

Song Structure:

     Intro -> Verse x6 -> Chrous x 2 -> Solo x 2 ->
     Verse x 4 -> Chorus x 8 -> Outro

Intro:
        P.M.----|
     e: --xx-111-11---------------------------------|
     B: --xx-111-11---------------------------------|
     G: --xx-222-22---------------------------------|
     D: --xx-333-33---------------------------------|
     A: --xx-333-33---------------------------------|
     E: --xx-111-11---------------------------------|

[ Tab from: http://www.guitartabs.cc/tabs/t/tennis/pigeon_tab.html ]
Verse:
        P.M.------------------------------------------|
     e: ----------------------------------------------|
     B: ----------------------------------------------|
     G: ----------------------------------------------|
     D: ----------------------------------------------|
     A: ----------------------------------------------|
     E: --1-11-1/5-5\3/6-66-6/8-8-6-8-6---------------|


Chorus:

     Hold the respective barre chord and slide between
     positions picking out the notes below and letting
     them ring out


     e: -----1----1----5----5----6----6----8----6---|
     B: ----1-1--1-1--5-5--5-5--6-6--6-6--8-8--6-6--|
     G: ---2----2----5----5----7----7----9----7-----|
     D: --3----3----7----7----8----8----10---8------|
     A: --------------------------------------------|
     E: --------------------------------------------|

        / F /////// Am ////// Bb ////// C // Bb /


Solo:

     e: --1-----------------------------------------|
     B: ---3----------------------------------------|
     G: ----2/5-55-2--------2/5-55-2----------------|
     D: ------------3/5-55-3--------33--------------|
     A: --------------------------------------------|
     E: --------------------------------------------|

Outro:

     e: --1-----------------------------------------|
     B: --1-----------------------------------------|
     G: --2-----------------------------------------|
     D: --3-----------------------------------------|
     A: --3-----------------------------------------|
     E: --1-----------------------------------------|
Comments