Tenacious D - Wonderboy Chords & Tabs

 

Wonderboy Chords & Tabs

Tenacious D Chords & Tabs

Version: 2 Type: Tab 0 ratings
1 star 2 stars 3 stars 4 stars 5 stars
comments

Wonderboy Tab

   
Band: Tenacious D
Song: Wonderboy
Tuning: Standard (EADGBE)
Tabbed By: 3V1L L33T

p=pull off
h=hammer on
/=slide (either way)

You'll notice some staves are joined with verticle lines (|) these are to s
ignify when two or more guitars are playing and also show a bar of music.

Intro: Let ring throughout
E---2-----3p2------------1p0-----1p0-------
B-----3-------3---3----------3-------3---3-
G-------2-------2------3-------3-------3---
D-0----------------------------------------
A------------------------------------------
E------------------------------------------

E---2-----3p2------------1p0-----1p0-------
B-----3-------3---3----------3-------3---3-
G-------2-------2------3-------3-------3---
D-0----------------------------------------
A------------------------------------------
E------------------------------------------

|E---2-----3p2------------1p0-----1p0--------|
|B-----3-------3---3----------3-------3---3--|
|G-------2-------2------3-------3-------3----|
|D-0-----------------------------------------|
|A-------------------------------------------|
|E-------------------------------------------|
|						    |
|E-------------------------------------------|
|B/10------------10/11--11--------13----11/10|
|G/11------------11/12--12--------14----12/11|
|D-------------------------------------------|
|A-------------------------------------------|
|E-------------------------------------------|

|E---2-----3p2------------1p0-----1p0--------|
|B-----3-------3---3----------3-------3---3--|
|G-------2-------2------3-------3-------3----|
|D-0-----------------------------------------|
|A-------------------------------------------|
|E-------------------------------------------|
|						    |
|E-------------------------------------------|
|B/10------------10/11--11--------14----11/10|
|G/11------------11/12--12--------15----12/11|
|D-------------------------------------------|
|A-------------------------------------------|
|E-------------------------------------------|


WonderBoy Verse (Let Ring)
|E---2-----3p2------------1p0-----1p0--------|
|B-----3-------3---3----------3-------3---3--|
|G-------2-------2------3-------3-------3----|
|D-0-----------------------------------------|
|A-------------------------------------------|
|E-------------------------------------------|
|						    |	
|E-------------------------------------------|
|B-10----------------------------------------|
|G-11----------------------------------------|
|D-------------------------------------------|
|A-------------------------------------------|
|E-------------------------------------------|

E---2-----3p2--------|----1p0-----1p0-------
B-----3-------3---3--|--------3-------3---3-
G-------2-------2----|--3-------3-------3---
D-0------------------|----------------------
A--------------------|----------------------
E--------------------|----------------------

E-----------------|-----------------|---------------|----------------------|
B-----------------|-----------------|---------------|----------------------|
G-----------------|-----------------|---------------|-----------4-----6----|
D-7-7-7-7-7-7-7-7-|-7-7-7-7-7-7-7-7-|-7-7-7-7-7-7-7-|-7-7-7-x-x-5-x-x-7-x-x|
A-5-5-5-5-5-5-5-5-|-4-4-4-4-4-4-4-4-|-x-x-x-x-x-x-x-|-x-x-x-x-x-5-x-x-7-x-x|
E-----------------|-----------------|-7-7-7-7-7-7-7-|-5-5-5-x-x-3-x-x-5-x-x|

|E---2-----3p2--------|----1p0-----1p0-------|
|B-----3-------3---3--|--------3-------3---3-|
|G-------2-------2----|--3-------3-------3---|
|D-0------------------|----------------------|
|A--------------------|----------------------|
|E--------------------|----------------------|
|						    |	
|E--------------------|----------------------|
|B--7-----------------|----------------------|
|G--7-----------------|----------------------|
|D--7-----------------|----------------------|
|A--5-----------------|----------------------|
|E--------------------|----------------------|

|E---2-----3p2--------|----1p0-----1p0-------|
|B-----3-------3---3--|--------3-------3---3-|
|G-------2-------2----|--3-------3-------3---|
|D-0------------------|----------------------|
|A--------------------|----------------------|
|E--------------------|----------------------|

E-----------------|-----------------|---------------|----------------------|
B-----------------|-----------------|---------------|----------------------|
G-----------------|-----------------|---------------|-----------4-----6----|
D-7-7-7-7-7-7-7-7-|-7-7-7-7-7-7-7-7-|-7-7-7-7-7-7-7-|-7-7-7-x-x-5-x-x-7-x-x|
A-5-5-5-5-5-5-5-5-|-4-4-4-4-4-4-4-4-|-x-x-x-x-x-x-x-|-x-x-x-x-x-5-x-x-7-x-x|
E-----------------|-----------------|-7-7-7-7-7-7-7-|-5-5-5-x-x-3-x-x-5-x-x|

|E---2-----3p2--------|----5p3-----5p3-------|
|B-----3-------3---3--|--------3-------3---3-|
|G-------2-------2----|--3-------3-------3---|
|D-0------------------|----------------------|
|A--------------------|----------------------|
|E--------------------|----------------------|
|						    |	
|E--------------------|----------------------|
|B--7-----------------|----------------------|
|G--7-----------------|----------------------|
|D--7-----------------|----------------------|
|A--5-----------------|----------------------|
|E--------------------|----------------------|


NastyBoy Verse
|E---2-----3p2--------|----5p3-----5p3-------|
|B-----3-------3---3--|--------3-------3---3-|
|G-------2-------2----|--3-------3-------3---|
|D-0------------------|----------------------|
|A--------------------|----------------------|
|E--------------------|----------------------|

|E---2-----3p2--------|----1p0-----1p0-------|
|B-----3-------3---3--|--------3-------3---3-|
|G-------2-------2----|--3-------3-------3---|
|D-0------------------|----------------------|
|A--------------------|----------------------|
|E--------------------|----------------------|

E-----------------|-----------------|---------------|----------------|
B-----------------|-----------------|---------------|----------------|
G-----------------|-----------------|---------------|----------------|
D-7-7-7-7-7-7-7-7-|-7-7-7-7-7-7-7-7-|-7-7-7-7-7-7-7-|-7-7-7-7-7-7-7-7|
A-5-5-5-5-5-5-5-5-|-4-4-4-4-4-4-4-4-|-x-x-x-x-x-x-x-|-x-x-x-x-x-x-x-x|
E-----------------|-----------------|-7-7-7-7-7-7-7-|-5-5-5-5-5-5-5-5|

E-----------------|-----------------|-----------------|--------------------|
B-----------------|-----------------|-----------------|--------------------|
G-4-4-4-4-4-4-4-4-|-2-2-2-2-2-2-2-2-|-9-9-9-9-9-9-9-9-|-5-7-7-9-9-11-11-12-|
D-5-5-5-5-5-5-5-5-|-4-4-4-4-4-4-4-4-|-9-9-9-9-9-9-9-9-|--------------------|
A-5-5-5-5-5-5-5-5-|-4-4-4-4-4-4-4-4-|-7-7-7-7-7-7-7-7-|-4-5-5-7-7--9--9-10-|
E-3-3-3-3-3-3-3-3-|-2-2-2-2-2-2-2-2-|-----------------|--------------------|

|E-----------------|-----------------|-----------------------|
|B-----------------|-----------------|-----------------------|
|G-12----------x-x-|-14--------------|-----------------------|
|D-------------x-x-|-14--------------|-----------------------|
|A-10----------x-x-|-12--------------|-----------------------|
|E-----------------|-----------------|-----------------------|
|								      |
|E-----------------|-----------------|-12b-10----------------|
|B-------------5-5-|-5---------------|--------10b-10-8-11-10~|
|G-------------6-6-|-6---------------|-----------------------|
|D-------------7-7-|-7---------------|-----------------------|
|A-------------7-7-|-7---------------|-----------------------|
|E-------------5-5-|-5---------------|-----------------------|

Chorus (Let Ring)
|E---2-----3p2--------|----1p0-----1p0-------|
|B-----3-------3---3--|--------3-------3---3-|
|G-------2-------2----|--3-------3-------3---|
|D-0------------------|----------------------|
|A--------------------|----------------------|
|E--------------------|----------------------|
|						    |	
|E--------------------|----------------------|
|B--7-----------------|----------------------|
|G--7-----------------|----------------------|
|D--7-----------------|----------------------|
|A--5-----------------|----------------------|
|E--------------------|----------------------|

|E---2-----3p2--------|----1p0-----1p0-------|
|B-----3-------3---3--|--------3-------3---3-|
|G-------2-------2----|--3-------3-------3---|
|D-0------------------|----------------------|
|A--------------------|----------------------|
|E--------------------|----------------------|
|						    |	
|E--------------------|----------------------|
|B--------------------|----------------------|
|G--------------------|----------------------|
|D--------------------|--3-3---3-3-3---3-3-3-|
|A--------------------|--1-1---1-1-1---1-1-1-|
|E--------------------|----------------------|

E-----------------|-----------------|---------------|----------------------|
B-----------------|-----------------|---------------|----------------------|
G-----------------|-----------------|---------------|-----------4-----6----|
D-7-7-7-7-7-7-7-7-|-7-7-7-7-7-7-7-7-|-7-7-7-7-7-7-7-|-7-7-7-x-x-5-x-x-7-x-x|
A-5-5-5-5-5-5-5-5-|-4-4-4-4-4-4-4-4-|-x-x-x-x-x-x-x-|-x-x-x-x-x-5-x-x-7-x-x|
E-----------------|-----------------|-7-7-7-7-7-7-7-|-5-5-5-x-x-3-x-x-5-x-x|

|E---2-----3p2--------|----1p0-----1p0-------|
|B-----3-------3---3--|--------3-------3---3-|
|G-------2-------2----|--3-------3-------3---|
|D-0------------------|----------------------|
|A--------------------|----------------------|
|E--------------------|----------------------|
|							   |	
|E--------------------|----------------------|
|B--7-----------------|----------------------|
|G--7-----------------|----------------------|
|D--7-----------------|----------------------|
|A--5-----------------|----------------------|
|E--------------------|----------------------|

|E---2-----3p2--------|----1p0-----1p0-------|
|B-----3-------3---3--|--------3-------3---3-|
|G-------2-------2----|--3-------3-------3---|
|D-0------------------|----------------------|
|A--------------------|----------------------|
|E--------------------|----------------------|

E-----------------|-----------------|---------------|----------------------|
B-----------------|-----------------|---------------|----------------------|
G-----------------|-----------------|---------------|-----------4-----6----|
D-7-7-7-7-7-7-7-7-|-7-7-7-7-7-7-7-7-|-7-7-7-7-7-7-7-|-7-7-7-x-x-5-x-x-7-x-x|
A-5-5-5-5-5-5-5-5-|-4-4-4-4-4-4-4-4-|-x-x-x-x-x-x-x-|-x-x-x-x-x-5-x-x-7-x-x|
E-----------------|-----------------|-7-7-7-7-7-7-7-|-5-5-5-x-x-3-x-x-5-x-x|
[ Tab from: http://www.guitartabs.cc/tabs/t/tenacious_d/wonderboy_tab_ver_2.html ]
|E---2-----3p2--------|----1p0-----1p0-------|
|B-----3-------3---3--|--------3-------3---3-|
|G-------2-------2----|--3-------3-------3---|
|D-0------------------|----------------------|
|A--------------------|----------------------|
|E--------------------|----------------------|
|GTR2						    |
|E--------------------|----------------------|
|B-7------------------|---------------------8/
|G-7----------------7/|3---------------------|
|D-7------------------|----------------------|
|A-5------------------|----------------------|
|E--------------------|----------------------|
|GTR3						    |
|E------------------8b|----------------------|
|B--------------------|----------------------|
|G--------------------|----------------------|
|D--------------------|----------------------|
|A--------------------|----------------------|
|E--------------------|----------------------|

|E---2-----3p2--------|----------------------|
|B-----3-------3---3--|----------------------|
|G-------2-------2----|-3--3h5--3h5--3-------|
|D-0------------------|----------------------|
|A--------------------|----------------------|
|E--------------------|----------------------|
|GTR2						    |
|E--------------------|----------------------|
|B-7------------------|----------------------|
|G--------------------|----------------------|
|D--------------------|----------------------|
|A--------------------|----------------------|
|E--------------------|----------------------|

Tenacious D Verse

E---2-----3p2------------1p0-----1p0-------
B-----3-------3---3----------3-------3---3-
G-------2-------2------3-------3-------3---
D-0----------------------------------------
A------------------------------------------
E------------------------------------------

E---2-----3p2------------1p0-----1p0-------
B-----3-------3---3----------3-------3---3-
G-------2-------2------3-------3-------3---
D-0----------------------------------------
A------------------------------------------
E------------------------------------------

E-----------------|-----------------|---------------|----------------------|
B-----------------|-----------------|---------------|----------------------|
G-----------------|-----------------|---------------|-----------4-----6----|
D-7-7-7-7-7-7-7-7-|-7-7-7-7-7-7-7-7-|-7-7-7-7-7-7-7-|-7-7-7-x-x-5-x-x-7-x-x|
A-5-5-5-5-5-5-5-5-|-4-4-4-4-4-4-4-4-|-x-x-x-x-x-x-x-|-x-x-x-x-x-5-x-x-7-x-x|
E-----------------|-----------------|-7-7-7-7-7-7-7-|-5-5-5-x-x-3-x-x-5-x-x|

|E------------------|---------------|
|B------------------|---------------|
|G------------------|---------------|
|D--5---------------|-7-------------|
|A--3-------5-------|-5-------------|
|E----------3-------|---------------|
|					  |
|E------------------|-2-------------|
|B--3-3-3-3---------|-3-------------|
|G--0-0-0-0-4-4-4-4-|-2-------------|
|D--2-2-2-2-5-5-5-5-|-0-------------|
|A--3-3-3-3-5-5-5-5-|---------------|
|E----------3-3-3-3-|---------------|

Solo
|E--10----10----10----10-12-|-10-12b------------------|
|B-----10----10----10-------|--------10-10h11-10-8-11-|
|G--------------------------|-------------------------|
|D--------------------------|-------------------------|
|A--------------------------|-------------------------|
|E--------------------------|-------------------------|
| 							      |
|E--------------------------|-------------------------|
|B--------------------------|-------------------------|
|G--------------------------|-------------------------|
|D--7--7--7--7--7--7--7--7--|---8-8-8-8-----8-8-8-8---|
|A--5--5--5--5--5--5--5--5--|---8-8-8-8-----8-8-8-8---|
|E--------------------------|---6-6-6-6-----6-6-6-6---|

|E-15p14p12-15p14p12-15p14p12-15p14p12-15p14p12-15p14p12-15p14p12-15p14p12-|
|B-------------------------------------------------------------------------|
|G-------------------------------------------------------------------------|
|D-------------------------------------------------------------------------|
|A-------------------------------------------------------------------------|
|E-------------------------------------------------------------------------|
|											|
|E-------------------------------------------------------------------------|
|B-------------------------------------------------------------------------|
|G-------------------------------------------------------------------------|
|D-7---------7--------7--------7--------7--------7--------7--------7-------|
|A-5---------5--------5--------5--------5--------5--------5--------5-------|
|E-------------------------------------------------------------------------|

|E-17p15p14-12h14p12-10h12p10-8h10p8-6h8p6--8--8b--6--8-|
|B------------------------------------------------------|
|G------------------------------------------------------|
|D------------------------------------------------------|
|A------------------------------------------------------|
|E------------------------------------------------------|
|								 |
|E------------------------------------------------------|
|B------------------------------------------------------|
|G------------------------------------------------------|
|D-8---------8--------8--------8-----8----8----8---8----|
|A-8---------8--------8--------8-----8----8----8---8----|
|E-6---------6--------6--------6-----6----6----6---6----|

|E-------------------|-------------------|
|B--10----10-8-8-7-8-|--10----10-8-8-7-8-|
|G--11----11-9-9-7-9-|--11----11-9-9-7-9-|
|D-------------------|-------------------|
|A-------------------|-------------------|
|E-------------------|-------------------|
|		 		 	       |
|E-------------------|-------------------|
|B-------------------|-------------------|
|G-------------------|-------------------|
|D--7-7-7-7--7-7-7-7-|-7-7-7-7--7-7-7-7--|
|A--5-5-5-5--5-5-5-5-|-4-4-4-4--4-4-4-4--|
|E-------------------|-------------------|

|E--------------------|-----------------------|
|B--7-5-5-3-3-5/3-2-3-|-------5---7-5---3-2---|
|G--7-6-6-4-4-6/4-2-4-|-4-6-7-6---7-6---4-2---|
|D--------------------|-5-7-9-----------------|
|A--------------------|-----------------------|
|E--------------------|-----------------------|
|						     |
|E--------------------|-----------------------|
|B--------------------|-----------------------|
|G--------------------|-----------4-----6-----|
|D--7-7-7-7-7-7---7-7-|-7-7-7-x-x-5-x-x-7-x-x-|
|A--x-x-x-x-x-x---x-x-|-x-x-x-x-x-5-x-x-7-x-x-|
|E--7-7-7-7-7-7---7-7-|-5-5-5-x-x-3-x-x-5-x-x-|

Chorus
|E---2-----3p2--------|----1p0-----1p0-------|
|B-----3-------3---3--|--------3-------3---3-|
|G-------2-------2----|--3-------3-------3---|
|D-0------------------|----------------------|
|A--------------------|----------------------|
|E--------------------|----------------------|
|					           |
|E--------------------|----------------------|
|B-3------------------|--3-------------------|
|G-2------------------|--3-------------------|
|D--------------------|----------------------|
|A--------------------|----------------------|
|E--------------------|----------------------|

|E---2-----3p2--------|----1p0-----1p0-------|
|B-----3-------3---3--|--------3-------3---3-|
|G-------2-------2----|--3-------3-------3---|
|D-0------------------|----------------------|
|A--------------------|----------------------|
|E--------------------|----------------------|
|						    |
|E--------------------|----------------------|
|B-3------------------|--3-------------------|
|G-2------------------|--3-------------------|
|D--------------------|----------------------|
|A--------------------|----------------------|
|E--------------------|----------------------|

E-----------------|-----------------|---------------|----------------------|
B-----------------|-----------------|---------------|----------------------|
G-----------------|-----------------|---------------|-----------4-----6----|
D-7-7-7-7-7-7-7-7-|-7-7-7-7-7-7-7-7-|-7-7-7-7-7-7-7-|-7-7-7-x-x-5-x-x-7-x-x|
A-5-5-5-5-5-5-5-5-|-4-4-4-4-4-4-4-4-|-x-x-x-x-x-x-x-|-x-x-x-x-x-5-x-x-7-x-x|
E-----------------|-----------------|-7-7-7-7-7-7-7-|-5-5-5-x-x-3-x-x-5-x-x|

|E--2-2-0-2-3-2-0-2-|-1-1-1-1-1-1-1-1-|
|B--3-3-3-3-3-3-3-3-|-3-3-3-3-3-3-3-3-|
|G--2-2-2-2-2-2-2-2-|-3-3-3-3-3-3-3-3-|
|D--0-0-0-0-0-0-0-0-|-----------------|
|A------------------|-----------------|
|E------------------|-----------------|
|					    |
|E------------------|-----------------|
|B------------------|-----------------|
|G--7-7-7-7-7-7-7-7-|-----------------|
|D--7-7-7-7-7-7-7-7-|-8-8-8-8-8-8-8-8-|
|A--5-5-5-5-5-5-5-5-|-8-8-8-8-8-8-8-8-|
|E------------------|-6-6-6-6-6-6-6-6-|

|E--2-2-0-2-3-2-0-2-|-1-1-1-1-1-1-1-1-|
|B--3-3-3-3-3-3-3-3-|-3-3-3-3-3-3-3-3-|
|G--2-2-2-2-2-2-2-2-|-3-3-3-3-3-3-3-3-|
|D--0-0-0-0-0-0-0-0-|-----------------|
|A------------------|-----------------|
|E------------------|-----------------|
|					    |
|E------------------|-----------------|
|B------------------|-----------------|
|G--7-7-7-7-7-7-7-7-|-----------------|
|D--7-7-7-7-7-7-7-7-|-8-8-8-8-8-8-8-8-|
|A--5-5-5-5-5-5-5-5-|-8-8-8-8-8-8-8-8-|
|E------------------|-6-6-6-6-6-6-6-6-|

|E--2-2-0-2-3-2-0-2-|-1-1-1-1-1-1-1-1-|
|B--3-3-3-3-3-3-3-3-|-3-3-3-3-3-3-3-3-|
|G--2-2-2-2-2-2-2-2-|-3-3-3-3-3-3-3-3-|
|D--0-0-0-0-0-0-0-0-|-----------------|
|A------------------|-----------------|
|E------------------|-----------------|
|					    |
|E------------------|-----------------|
|B------------------|-----------------|
|G--7-7-7-7-7-7-7-7-|-----------------|
|D--7-7-7-7-7-7-7-7-|-8-8-8-8-8-8-8-8-|
|A--5-5-5-5-5-5-5-5-|-8-8-8-8-8-8-8-8-|
|E------------------|-6-6-6-6-6-6-6-6-|

|E--2-2-0-2-3-2-0-2-|-1-1-1-1-1-1-1-1-|
|B--3-3-3-3-3-3-3-3-|-3-3-3-3-3-3-3-3-|
|G--2-2-2-2-2-2-2-2-|-3-3-3-3-3-3-3-3-|
|D--0-0-0-0-0-0-0-0-|-----------------|
|A------------------|-----------------|
|E------------------|-----------------|
|					    |
|E------------------|-----------------|
|B------------------|-----------------|
|G--7-7-7-7-7-7-7-7-|-----------------|
|D--7-7-7-7-7-7-7-7-|-8-8-8-8-8-8-8-8-|
|A--5-5-5-5-5-5-5-5-|-8-8-8-8-8-8-8-8-|
|E------------------|-6-6-6-6-6-6-6-6-|

Outro

|E----|------------|---|------------|
|B--3-|-3---3----3-|-3-|-3---3----3-|
|G--2-|-3---3h5--3-|-2-|-3---3h5--3-|
|D----|------------|---|------------|
|A----|------------|---|------------|
|E----|------------|---|------------|
|                                   |
|E----|------------|---|------------|
|B----|------------|---|------------|
|G--7-|------------|-7-|------------|
|D--7-|-8----------|-7-|-8----------|
|A--5-|-8----------|-5-|-8----------|
|E----|-6----------|---|-6----------|

|E--2--|
|B--3--|
|G--2--|
|D--0--|
|A-----|
|E-----|
|	|
|E-----|
|B-----|
|G--7--|
|D--7--|
|A--5--|
|E-----|

And thats it. You can go now.
Comments