Tenacious D - Wonderboy Chords & Tabs

 

Wonderboy Chords & Tabs

Tenacious D Chords & Tabs

Version: 1 Type: Tab 1 rating
1 star 2 stars 3 stars 4 stars 5 stars
comments

Wonderboy Tab

   
“Wonderboy” by Tenacious D
Tab by Jay Bartholomew (jaybar36@hotmail.com)
Standard tuning: EADGBE

Intro

Guitar 1 (play twice alone)
   D                 Bb
e|---2-----3p2-----2---1p0-----1p0-------------------|
B|-----3-------3-----------3-------3---3-------------|
G|-------2-------2---3-------3-------3---------------|
D|-0-------------------------------------------------|
A|---------------------------------------------------|
E|---------------------------------------------------|

Guitar 2 (come in on third Guitar 1 line)
e|---------------------------------------------------|
B|-3/10---10h11-11b--13-11-10----10h11-11b--14-11-10-|
G|---------------------------------------------------|
D|---------------------------------------------------|
A|---------------------------------------------------|
E|---------------------------------------------------|

Play the Guitar 1 riff constantly through the song

“...How ‘bout the power to move you”
[ Tab from: http://www.guitartabs.cc/tabs/t/tenacious_d/wonderboy_tab.html ]
Guitar 2
e|-12b-10--------------------------------------------|
B|--------10b-10-8-11-10-----------------------------|
G|---------------------------------------------------|
D|---------------------------------------------------|
A|---------------------------------------------------|
E|---------------------------------------------------|

Solo

Guitar 2
e|-10----10----10----10-12-12b-12-10---------------------------------------|
B|----10----10----10-----------------10-11-10-8-11-10----------------------|
G|-------------------------------------------------------------------------|
D|-------------------------------------------------------------------------|
A|-------------------------------------------------------------------------|
E|-------------------------------------------------------------------------|

Guitar 2 (this part is REALLY fast)
e|-15p14p12-15p14p12-15p14p12-15p14p12-15p14p12-15p14p12-15p14p12-15p14p12-|
B|-------------------------------------------------------------------------|
G|-------------------------------------------------------------------------|
D|-------------------------------------------------------------------------|
A|-------------------------------------------------------------------------|
E|-------------------------------------------------------------------------|
And then I must fail you loyal tab readers... Tenacious D is just too fast for 
the likes of me.

So there you have it... sort of.  At least now there’s a correct intro for people 
to read.  Sorry about that solo. 
Comments