Tenacious D - Wonder Boy Chords & Tabs

 

Wonder Boy Chords & Tabs

Tenacious D Chords & Tabs

Version: 1 Type: Tab 0 ratings
1 star 2 stars 3 stars 4 stars 5 stars
comments

Wonder Boy Tab

   




Artist: Tenacious 
Song: Wonderboy
Album: Tenacious D

Strum: Down, Down, Up, Down, Up, Down (Per Chord) 

Intro

Guitar 1 (play twice alone)
   D                 Bb
e|---2-----3p2-----2---1p0-----1p0-------------------|
B|-----3-------3-----------3-------3---3-------------|
G|-------2-------2---3-------3-------3---------------|
D|-0-------------------------------------------------|
A|---------------------------------------------------|
E|---------------------------------------------------|

Guitar 2 (come in on third Guitar 1 line)
e|-5-6-6-8-6-5-5---5-6-6-8-6-------------------------|
B|-7-6-6-8-6-7-7---7-6-6-8-6-------------------------|
G|-7-7-7-9-7-7-7---7-7-7-9-7-------------------------|
D|---------------------------------------------------|
A|---------------------------------------------------|
E|---------------------------------------------------|

Verse
e|---2-----3p2-----2---1p0-----1p0-------------------|
B|-----3-------3-----------3-------3---3-------------|
G|-------2-------2---3-------3-------3---------------|
D|-0-------------------------------------------------|
A|---------------------------------------------------|
E|---------------------------------------------------|

e|---2-----3p2-----2---1p0-----1p0-------------------|
B|-----3-------3-----------3-------3---3-------------|
G|-------2-------2---3-------3-------3---------------|
D|-0-------------------------------------------------|
A|---------------------------------------------------|
E|---------------------------------------------------|

Pre-Chorus
e|---------------------------------------------------|
B|---------------------------------------------------|
G|---------------------------------------------------|
D|-7-7-7-7-7-7-7-7-7-7-7-7-7-7-7-7-------------------|
A|-5-5-5-5-5-5-5-5-4-4-4-4-4-4-4-4-------------------|
E|---------------------------------------------------|

e|---------------------------------------------------|
B|---------------------------------------------------|
G|---------------------------------------------------|
D|-4-4-4-4-4-4-4-4-2-2-2-2-2-2-2-2-------------------|
A|-2-2-2-2-2-2-2-2-0-0-0-0-0-0-0-0-------------------|
E|---------------------------------------------------|

Chorus
e|---2-----3p2-----2---1p0-----1p0-------------------|
B|-----3-------3-----------3-------3---3-------------|
G|-------2-------2---3-------3-------3---------------|
D|-0-------------------------------------------------|
A|---------------------------------------------------|
E|---------------------------------------------------|

e|---2-----3p2-----2---1p0-----1p0-------------------|
B|-----3-------3-----------3-------3---3-------------|
G|-------2-------2---3-------3-------3---------------|
D|-0-------------------------------------------------|
A|---------------------------------------------------|
E|---------------------------------------------------|

e|---------------------------------------------------|
B|---------------------------------------------------|
G|---------------------------------------------------|
D|-7-7-7-7-7-7-7-7-7-7-7-7-7-7-7-7-------------------|
A|-5-5-5-5-5-5-5-5-4-4-4-4-4-4-4-4-------------------|
E|---------------------------------------------------|

e|---------------------------------------------------|
B|---------------------------------------------------|
G|---------------------------------------------------|
D|-4-4-4-4-4-4-4-4-2-2-2-2-2-2-2-2-------------------|
A|-2-2-2-2-2-2-2-2-0-0-0-0-0-0-0-0-------------------|
E|---------------------------------------------------|



Verse
e|---2-----3p2-----2---1p0-----1p0-------------------|
B|-----3-------3-----------3-------3---3-------------|
G|-------2-------2---3-------3-------3---------------|
D|-0-------------------------------------------------|
A|---------------------------------------------------|
E|---------------------------------------------------|

e|---2-----3p2-----2---1p0-----1p0-------------------|
B|-----3-------3-----------3-------3---3-------------|
G|-------2-------2---3-------3-------3---------------|
D|-0-------------------------------------------------|
A|---------------------------------------------------|
E|---------------------------------------------------|







Pre-Chorus
e|---------------------------------------------------|
B|---------------------------------------------------|
G|---------------------------------------------------|
D|-7-7-7-7-7-7-7-7-7-7-7-7-7-7-7-7-------------------|
A|-5-5-5-5-5-5-5-5-4-4-4-4-4-4-4-4-------------------|
E|---------------------------------------------------|

e|---------------------------------------------------|
B|---------------------------------------------------|
G|---------------------------------------------------|
D|-4-4-4-4-4-4-4-4-2-2-2-2-2-2-2-2-------------------|
A|-2-2-2-2-2-2-2-2-0-0-0-0-0-0-0-0-------------------|
E|---------------------------------------------------|



“...How ‘bout the power to move you”

Guitar 2 (on it’s own)
e|-12b-10--------------------------------------------|
B|--------10b-10-8-11-10-----------------------------|
G|---------------------------------------------------|
D|---------------------------------------------------|
A|---------------------------------------------------|
E|---------------------------------------------------|

  Am            C                  G
History and Wonderboy and young Nastyman
 
(------------------Mute-----------------)
Rig - a - goo - goo - rig - a - goo - goo 

Pre-Chorus
e|---------------------------------------------------|
B|---------------------------------------------------|
G|---------------------------------------------------|
D|-7-7-7-7-7-7-7-7-7-7-7-7-7-7-7-7-------------------|
A|-5-5-5-5-5-5-5-5-4-4-4-4-4-4-4-4-------------------|
E|---------------------------------------------------|
[ Tab from: http://www.guitartabs.cc/tabs/t/tenacious_d/wonder_boy_tab.html ]
e|---------------------------------------------------|
B|---------------------------------------------------|
G|---------------------------------------------------|
D|-4-4-4-4-4-4-4-4-2-2-2-2-2-2-2-2-------------------|
A|-2-2-2-2-2-2-2-2-0-0-0-0-0-0-0-0-------------------|
E|---------------------------------------------------|







Chorus
e|---2-----3p2-----2---1p0-----1p0-------------------|
B|-----3-------3-----------3-------3---3-------------|
G|-------2-------2---3-------3-------3---------------|
D|-0-------------------------------------------------|
A|---------------------------------------------------|
E|---------------------------------------------------|

e|---2-----3p2-----2---1p0-----1p0-------------------|
B|-----3-------3-----------3-------3---3-------------|
G|-------2-------2---3-------3-------3---------------|
D|-0-------------------------------------------------|
A|---------------------------------------------------|
E|---------------------------------------------------|

e|---------------------------------------------------|
B|---------------------------------------------------|
G|---------------------------------------------------|
D|-7-7-7-7-7-7-7-7-7-7-7-7-7-7-7-7-------------------|
A|-5-5-5-5-5-5-5-5-4-4-4-4-4-4-4-4-------------------|
E|---------------------------------------------------|

e|---------------------------------------------------|
B|---------------------------------------------------|
G|---------------------------------------------------|
D|-4-4-4-4-4-4-4-4-2-2-2-2-2-2-2-2-------------------|
A|-2-2-2-2-2-2-2-2-0-0-0-0-0-0-0-0-------------------|
E|---------------------------------------------------|


Verse
e|---2-----3p2-----2---1p0-----1p0-------------------|
B|-----3-------3-----------3-------3---3-------------|
G|-------2-------2---3-------3-------3---------------|
D|-0-------------------------------------------------|
A|---------------------------------------------------|
E|---------------------------------------------------|

e|---2-----3p2-----2---1p0-----1p0-------------------|
B|-----3-------3-----------3-------3---3-------------|
G|-------2-------2---3-------3-------3---------------|
D|-0-------------------------------------------------|
A|---------------------------------------------------|
E|---------------------------------------------------|

Pre-chorus 
e|---------------------------------------------------|
B|---------------------------------------------------|
G|---------------------------------------------------|
D|-7-7-7-7-7-7-7-7-7-7-7-7-7-7-7-7-------------------|
A|-5-5-5-5-5-5-5-5-4-4-4-4-4-4-4-4-------------------|
E|---------------------------------------------------|

e|---------------------------------------------------|
B|---------------------------------------------------|
G|---------------------------------------------------|
D|-4-4-4-4-4-4-4-4-2-2-2-2-2-2-2-2-------------------|
A|-2-2-2-2-2-2-2-2-0-0-0-0-0-0-0-0-------------------|
E|---------------------------------------------------|


(----------muted---------)
Come fly with me, cage fly  


Solo

Guitar 2
e|-10----10----10-------12-13-12-10----10----10-------------------------
B|----10----10----10-10-------------10----10----------------------------
G|----------------------------------------------------------------------
D|----------------------------------------------------------------------
A|----------------------------------------------------------------------
E|----------------------------------------------------------------------

 



Guitar 2
(This part is played really fast) 
 
e|15p14p12-15p14p12-15p14p12-15p14p12-15p14p12-15p14p12-15p14p12---14b-14b-----
B|------------------------------------------------------------------------------
G|------------------------------------------------------------------------------
D|------------------------------------------------------------------------------
A|------------------------------------------------------------------------------
E|------------------------------------------------------------------------------

Guitar 1 : plays the intro twice	
Guitar 2 : D     C     C     G    G  x2
            
Chorus
e|---2-----3p2-----2---1p0-----1p0-------------------|
B|-----3-------3-----------3-------3---3-------------|
G|-------2-------2---3-------3-------3---------------|
D|-0-------------------------------------------------|
A|---------------------------------------------------|
E|---------------------------------------------------|

e|---2-----3p2-----2---1p0-----1p0-------------------|
B|-----3-------3-----------3-------3---3-------------|
G|-------2-------2---3-------3-------3---------------|
D|-0-------------------------------------------------|
A|---------------------------------------------------|
E|---------------------------------------------------|

e|---------------------------------------------------|
B|---------------------------------------------------|
G|---------------------------------------------------|
D|-7-7-7-7-7-7-7-7-7-7-7-7-7-7-7-7-------------------|
A|-5-5-5-5-5-5-5-5-4-4-4-4-4-4-4-4-------------------|
E|---------------------------------------------------|

e|---------------------------------------------------|
B|---------------------------------------------------|
G|---------------------------------------------------|
D|-4-4-4-4-4-4-4-4-2-2-2-2-2-2-2-2-------------------|
A|-2-2-2-2-2-2-2-2-0-0-0-0-0-0-0-0-------------------|
E|---------------------------------------------------|


Guitar 1 : plays the intro twice	
Guitar 2 : D     C     C     G    G  x2


e|---2-----3p2-----2---1p0-----1p0-------------------|
B|-----3-------3-----------3-------3---3-------------|
G|-------2-------2---3-------3-------3---------------|
D|-0-------------------------------------------------|
A|---------------------------------------------------|
E|---------------------------------------------------|

e|---2-----3p2-----2---1p0-----1p0-------------------|
B|-----3-------3-----------3-------3---3-------------|
G|-------2-------2---3-------3-------3---------------|
D|-0-------------------------------------------------|
A|---------------------------------------------------|
E|---------------------------------------------------|


Guitar 1: Strums an Am chord really slowly on the word “juice”


Comments