Tenacious D - Spiderman Chords & Tabs

 

Spiderman Chords & Tabs

Tenacious D Chords & Tabs

Version: 1 Type: Tab 0 ratings
1 star 2 stars 3 stars 4 stars 5 stars
comments

Spiderman Tab

"Spiderman" By: Tenacious D
Tab by Kevin Taylor (Kevinru469@yahoo.com)
Standard Tuning


e|-----------------------------------------------------------------------------------|
B|-----------------------------------------------------------------------------------|
G|-----------------------------------------------------------------------------------| 
D|----5---------6---------7--------7--------7--------7-------------------------------|
A|----5---------6---------7--------7--------7--------7-- reapeat--x2-----------------|
E|----3---------4---------5--------5--------5--------5-------------------------------|

[ Tab from: http://www.guitartabs.cc/tabs/t/tenacious_d/spiderman_tab.html ]
e|-----------------------------------------------------------------------------------|
B|-----------------------------------------------------------------------------------|
G|-----------------------------------------------------------------------------------|
D|-----5---------6--------8-------8--------8-------8---------------------------------|
A|-----5---------6--------8-------8--------8-------8---------------------------------|
E|-----3---------4--------6-------6--------6-------6---------------------------------|

================================================================
That's pretty much it except fot a 7th Chord when switching aruond...you'll figure it out
Good Luck and Happy guitar Playing.....
Comments