Tenacious D - Kielbasa Chords & Tabs

 

Kielbasa Chords & Tabs

Tenacious D Chords & Tabs

Version: 5 Type: Tab 0 ratings
1 star 2 stars 3 stars 4 stars 5 stars
comments

Kielbasa Tab

   
Intro
G7th   C    A
e|-1---0----0-|
b|-0---1----2-|
g|-0---0----2-|
d|-0---2----2-|
a|-2---3----0-|
e|-3----------|


Guitar 1
e|--------------------00--0-0--00--0-------------|
b|--------------------11--1-1--11--1-------------|
g|------3b-0--3b-0----00--2-0--00--0-------------|
d|------0--0--0--0----33--3-3--00--2-----0-0h2p0-|
a|--------------------00--0-0--33--3-------------|
e|--3-3------------------------------------------|

e|--------------------0---0-0--00-0--------------|
b|--------------------1---1-1--11-1--------------|
g|------3b-0--3b-0----0h2-2-0--00-0--------------|
d|------0--0--0--0----3---3-3--00-2--------------|
a|--------------------0---0-0--33-3--------------|
e|--3-3------------------------------------------|
[ Tab from: http://www.guitartabs.cc/tabs/t/tenacious_d/kielbasa_tab_ver_5.html ]
Guitar 1
e|--------------------00--0-0--00--0--------------------0-0-0-0|
b|--------------------11--1-1--11--1--------------------1-1-1-1|
g|------3b-0--3b-0----00--2-0--00--0--------------------2-0-0-0|
d|------0--0--0--0----33--3-3--00--2--------------------3-3-0-2|
a|--------------------00--0-0--33--3------2-3-2-0-2-----0-0-3-3|
e|--3-3---------------------------------3-----------3-1-----0-0|
Guitar 2
e|---------------------------------------------------------------|
b|---------------------------------------------------------------|
g|-----3b-0-3b-0----1s2-0-------------------------------0h2-0----|
d|------------------------3-2-0h2p0-0-------------------------3-2|
a|----------------3---------------------2-2s3-2-0-2--------------|
e|--33--------------------------------3-------------3-1----------|

now fuckin get it on!


Solo 1
e|-------------------------------------------------------------|
b|-8-8-8-8-8--8s10-8-6-5~~-----------5b------------------------|
g|-7-7-7-7-7----------------5-3-----3--------3---5b--5h6p5-3~--|
d|------------------------------3h5------3h5-------------------|
a|-------------------------------------------------------------|
e|-------------------------------------------------------------|

Solo 2
e|------------------------------------------------------------------------|
b|-11-11-11-11-11-11-11-11-8s10-8-6-5~~---------5b------------------------|
g|-10-10-10-10-10-10-10-10--------------5-3-----3-------3s5-3-------------|
d|------------------------------------------3h5-------5-------5-3-0-------|
a|------------------------------------------------------------------3-----|
e|------------------------------------------------------------------------|


End
e|-------------------|
b|-------------------|
g|----------55555555-|
d|--5555555555555555-|repeat a bunch
a|--5555555533333333-|
e|--33333333---------|

e|-------------------|
b|-------------------|
g|-------------------|
d|--2222222233333----| once
a|--2222222233333----|
e|--0000000011111----|

e|------xxxx-----xx-----xxxx-------xx-|
b|------xxxx-----xx-----xxxx-------xx-|
g|------xxxx-5-5-xx-9-9-xxxx-10-10-xx-|
d|--5-5-xxxx-5-5-xx-9-9-xxxx-10-10-xx-|repeat till end
a|--5-5-xxxx-3-3-xx-7-7-xxxx-8--8--xx-|
e|--3-3-xxxx-----xx-----xxxx-------xx-|
Comments