Tenacious D - Jesus Ranch Chords & Tabs

 

Jesus Ranch Chords & Tabs

Tenacious D Chords & Tabs

Version: 2 Type: Tab 0 ratings
1 star 2 stars 3 stars 4 stars 5 stars
comments

Jesus Ranch Tab

   
-------------------------------------------------------------------------------
			     Tenaish - J ranch
-------------------------------------------------------------------------------
Tabbed by: A
Email: @.com

Tuning: Usual

e|-----2---------0------------------------|
B|-----2h3-------3p2----------------2-----|
G|-----4---------2---------0h1------0-----|
D|-------------------0-----2---0----4-----|
A|-2-2-------0-0--------------------------|
E|----------------------0-0-------2-------|


It was in the saaaaand alright
e|-----2---------0---------0---0-0-----|
B|-----2h3-------3p2-------0---0-0-----|
G|-----4---------2---------1h2-2-2-----|
D|-------------------0-----2---2-2-----|
A|-2-2-------0-0-----------------------|
E|----------------------0-0------------|


          I'm takin a walk in the woooods            and it's nice outside
e|--------------------------------0------------0------------|
B|-3------------------------------2------------0------------|
G|-2------------------------------2------------1------------|
D|-0------------------------------2------------2------------|
A|--------------------------------0------------2------------|
E|---------------------------------------------0------------|

[ Tab from: http://www.guitartabs.cc/tabs/t/tenacious_d/jesus_ranch_tab_ver_2.html ]
          Smells of shit     liga gwing gligigi googoogoo gway-o go
e|-2---------------------------------------------------|
B|-3---------------------------------------------------|
G|-4---------------------------------------------------|
D|-4---------------------------------------------------|
A|-2---------------------------------------------------|
E|-----------------------------------------------------|


         I come upon a silver striped mushroom and
e|-0---------------------0---------0--------|
B|-2---------------------0---------0--------|
G|-2---------------------1---------3--------|
D|-2---------------------2---------4--------|
A|-0---------------------2---------4--------|
E|-----------------------0---------2--------|


         Fly la la la ly la ly  ( do this riff for the next verse)
e|-2----------0--------0-----0----------------|
B|-3----------2--------0-----0----------------|
G|-4----------2--------1-----3----------------|
D|-4----------2--------2-----4----------------|
A|-2----------0--------2-----4----------------|
E|---------------------0-----2----------------|

Outro
e|---------7---|
B|-------7-----|
G|-----7-------|
D|--11---------|
A|-------------|
E|-------------|


| /  slide up
| \  slide down
| h  hammer-on
| p  pull-off
| ~  vibrato
| +  harmonic
| x  Mute note
===============================================================================
Comments