Ten Years After - Im Coming On Chords & Tabs

 

Im Coming On Chords & Tabs

Ten Years After Chords & Tabs

Version: 1 Type: Tab 0 ratings
1 star 2 stars 3 stars 4 stars 5 stars
comments

Im Coming On Tab

Tabbed by Mogli

e---------------------------------------------------------------------------|
B---------------------------------------------------------------------------|
G---------------------------------------------------------------------------|
D---------------------------------------------------------------------------|
A-------3-3-5b-3-3----------------------------------------------------------|
E--3^555-5------5-5-5-3^5---------------------------------------------------|
[ Tab from: http://www.guitartabs.cc/tabs/t/ten_years_after/im_coming_on_tab.html ]
e---------------------------------------------------------------------------|
B---------------------------------------------------------------------------|
G-------5-5-7b-5-5----------------------------------------------------------|
D--5^777-7------7-7-7-5^7---------------------------------------------------|
A---------------------------------------------------------------------------|
E---------------------------------------------------------------------------|

Hope you like this song it is the best Ten years after song
Comments