Ten Years After - Id Love To Change The World Chords & Tabs

 

Id Love To Change The World Chords & Tabs

Ten Years After Chords & Tabs

Version: 2 Type: Bass Tab 0 ratings
1 star 2 stars 3 stars 4 stars 5 stars
comments

Id Love To Change The World Bass Tab

I'd Love To Change the World - Ten Years After
[ Tab from: http://www.guitartabs.cc/tabs/t/ten_years_after/id_love_to_change_the_world_btab_ver_2.html ]
  slow part riff            verse riff
G|-------------45-9-8-911\-|------------------------5-55-4-4--|
D|2-2345-5-57-7------------|2-222-025-555-057-777-07--------54|
A|-------------------------|-----2-------5-------7------------|
E|-------------------------|----------------------------------|

  solo
G|---------01------------34------------56---5-55-4-4-----|
D|2-22--012--22-5-55--345--55-7-77--567--77---------54\2-|
A|-----2-------------5-------------7---------------------|
E|-------------------------------------------------------|

tabbed by Achilles (blue_sincere@hotmail.com)
Comments