Ten Yard Fight - Straight-edge In Your Face Chords & Tabs

 

Straight-edge In Your Face Chords & Tabs

Ten Yard Fight Chords & Tabs

Version: 2 Type: Bass Tab 0 ratings
1 star 2 stars 3 stars 4 stars 5 stars
comments

Straight-edge In Your Face Bass Tab

   
SONG:  sXe IN YOUR FACE
ARTIST:  TEN YARD FIGHT
TABBED BY: JASON GUARALDI (JAGUAR_36900@YAHOO.COM FOR CORRECTIONS)

*PRE-INTRO
   H       H
G|-----------------|
D|-----------------|
A|-----------------|
E|-R-------12\-----|

*INTRO/CHORUS
  E E E E E E E E + E E Q   E E Q     E E E E E E E E + E E Q   E E Q
G|-----------------|-----------------|-----------------|-----------------|
D|-----------------|-----------------|-----------------|-----------------|
A|-----------------|-----------------|-----------------|-----------------|
E|-0-0-0-0-0-0-6(3-|-3)3-3---3-3-3---|-0-0-0-0-0-0-6(5-|-5)5-5---5-5-5---|
                (_____)                             (_____)

*VERSE (IM NOT SURE WHICH ONE OF THESE IT 
     IS SO CHOOSE THE ONE THAT SOUNDS BEST)
 #1)                                  #2)
   Q.    Q.    Q     Q.    Q.    Q      Q.    Q.    Q     Q.    Q.    Q
G|-----------------|-----------------||-----------------|-----------------|
D|-----------------|-----------------||-----------------|-----------------|
A|-----------------|-----------------||-0-----1---------|-0-----1---------|
E|-5-----6-----3---|-5-----6-----0---||-------------3---|-------------1---|

[ Tab from: http://www.guitartabs.cc/tabs/t/ten_yard_fight/straight_edge_in_your_face_btab_ver_2.html ]
*PRE-CHORUS
   Q   Q   E E Q     E. E E. E E E E   Q   Q   E E Q     E.  E  E.  E  E  E  E 
G|-----------------|-----------------|-----------------|-- --- -- --- -- -- -- -|
D|-----------------|-----------------|-----------------|-- --- -- --- -- -- -- -|
A|-----------------|-----------------|-----------------|-- --- -- --- -- -- -- -|
E|-5---5---5-5-5---|-6--6-6--6-6-6-6-|-8---8---8-8-8---|-10--10-10--10-10-10-10-|

*INTERLUDE 1
   E E E E E E E E + E E Q   E E Q     E E E E E E E E + E E Q   E E Q  
G|-----------------|-----------------|-----------------|-----------------|
D|-----------------|-----------------|-----------------|-----------------|
A|-----------------|-----------------|-----------------|-----------------|
E|-5-5-5-5-5-5-0(1-|-1)1-1---1-1-1---|-5-5-5-5-5-5-1(3-|-3)3-3---3-3-3---|
                (_____)        (_____)

*INTERLUDE 2
    E E E E E E E E + E E Q   E E Q
G|------------------|-----------------|
D|o-----------------|-----------------|
A|o-----------------|-----------------|
E|--8-8-8-8-8-8-5(6-|-6)6-6---6-6-6---|
 _____________________________________
|1-3
   E E E SSE E E SS  E E E SSE E E SS
G|-----------------|------------------|
D|-----------------|-----------------o|
A|-----------------|-----------------o|
E|-0-0-0-000-0-0-00|-0-0-0-000-0-0-00-|
 _____________________________________
|4
   E E E E E E E E   E E E E E E Q
G|-----------------|-----------------|
D|-----------------|-----------------|
A|-----------------|-----------------|
E|-3-0-0-5-0-0-6-0-|-0-3-0-0-3\2\1---|

I hope this is right, otherwise email me the corrections :-)
sXe Pride!!!

Jason Guaraldi (Act of Shame - www.actofshame.homestead.com)
G|---------9-7-6-7-|
D|-----------------|
A|---0-1-0---------|
E|-0---------------|


Comments