Ten Foot Pole - Still Believe Chords & Tabs

 

Still Believe Chords & Tabs

Ten Foot Pole Chords & Tabs

Version: 1 Type: Tab 0 ratings
1 star 2 stars 3 stars 4 stars 5 stars
comments

Still Believe Tab

   
--------------------------------------------------------------------
	          Still Believe - Ten Foot Pole
--------------------------------------------------------------------

Tabbed by: Paul Bentley
Album: Subliminable Messages
Email: pauldbentley@hotmail.com
Tuning: Down 1/2 Step

Another great album by Ten Foot Pole! This is my favourite song and sounds like the FTP of old. 
Simple, Fast, Big Chorus.

Verse:
1|-----------------------------------------------------------|
2|-----------------------------------------------------------|
3|-----------------------------------------------------------|
4|---------------------------7-------------------7777-99-66--|
5|--44---44---44-7---44---44-5-7--44---44---44-7-5555-77-44--|
6|--22-0-22-0-22-5---22-0-22---5--22-0-22-0-22-5-------------|
[ Tab from: http://www.guitartabs.cc/tabs/t/ten_foot_pole/still_believe_tab.html ]
Main Chorus:
1|----------------------------------|
2|----------------------------------|
3|----------------------------------|
4|--11--7-----------11--7---9----7--|
5|--9---5---7---2---9---5---7----5--|
6|----------5---0-------------------|

Alt Chorus:
1|----------------------------------|
2|----------------------------------|
3|----------------------------------|
4|--9---5-------7---9---5---7----5--|
5|--7---3---5---5---7---3---5----3--|
6|----------3-----------------------|

Interlude:
1|----------------------------------------------|
2|----------------------------------------------|
3|----------------------------------------------|
4|-----------------7777-6-----------------7777--|
5|--7-4--7-4--7-4--5555\4--7-4--7-4--7-4--5555--|
6|--5\2--5\2--5\2----------5\2--5\2--5\2--------|

Order:
Verse x 2
Main Chorus x 2
Verse x 4
Interlude x 2
Alt Chorus x 1
Main Chorus x 1


| /  slide up
| \  slide down
| h  hammer-on
| p  pull-off
| ~  vibrato
| +  harmonic
| x  Mute note
=====================================================================
Comments