Ten Foot Pole - Fiction Chords & Tabs

 

Fiction Chords & Tabs

Ten Foot Pole Chords & Tabs

Version: 2 Type: Bass Tab 0 ratings
1 star 2 stars 3 stars 4 stars 5 stars
comments

Fiction Bass Tab

Song: Fiction
Band: 10 Foot Pole
Album: Unleashed
tabbed by: Alberto zorrico3@yahoo.com

                                     
                           
intro & verse  
G:------------
D:------------
A:-----4>-6>-- X 6
E:--1>--------
[ Tab from: http://www.guitartabs.cc/tabs/t/ten_foot_pole/fiction_btab_ver_2.html ]
pre-chorus
G:---------------------------------
D:---------------------------------
A:--------4-4-4-3-3-3-1-1-1-3-3-3-- X 4
E:--1>-4>--------------------------

chorus
G:---------------------
D:----1-3--------------
A:--------3-3-3-4-4-4-- X 4
E:--4------------------

intro X 2
verse X 4
pre-chorus
chorus

bridge
G:---------
D:---------
A:-----4>-- X 2 
E:--1>-----

intro over & over 
Comments