Ten Foot Pole - A D D Chords & Tabs

 

A D D Chords & Tabs

Ten Foot Pole Chords & Tabs

Version: 2 Type: Bass Tab 0 ratings
1 star 2 stars 3 stars 4 stars 5 stars
comments

A D D Bass Tab

------------------------------------------------------------------
		    A.D.D. - Ten Foot Pole
------------------------------------------------------------------

By: Dave Wilson (nougeypooge@hotmail.com for requests)

Intro (x4)
G|----------------------|----------------------------------------|
D|----------------------|----------------------------------------|
A|--------------------6-|--------6-------------------------------|
E|1-1--1-1--1-1--1-1----|------1---8-6-4-3-----------------------|

Verse 1 (x2)
G|---------------------------------------------------------------|
D|---------------------------------------------------------------|
A|-------------6-6-6-6-6-6---------------------------------------|
E|1-1-1-1-1-1---------------6-6-6-6-6-6--4-4-4-4--6-6-6-6--------|
[ Tab from: http://www.guitartabs.cc/tabs/t/ten_foot_pole/a_d_d_btab_ver_2.html ]
Verse 2 (x2)
G|---------------------------------------------------------------|
D|---------------------------------------------------------------|
A|---------------------------------------3-3-3-3--5-5-5-5--------|
E|1-1-1-1-1-1--4-4-4-4-4-4--6-6-6-6-6-6--------------------------|
Verse 1 (x2)

Chorus (x4)
G|---------------------------------------------------------------|
D|---------------------------------------------------------------|
A|6-6-6-6--------------------------------------------------------|
E|---------8-8-8-8--6-6-6-6--4-4-4-4-----------------------------|
Verse 1 (x2)
Verse 2 (x2)
Chorus  (x4)

Bridge (x3)          (x1)
G|------------------|--------------------------------------------|
D|------------------|--------------------------------------------|
A|-----------3-3-5-5|-------6-6-6-6------------------------------|
E|1-1-4-4-6-6-------|1-1-1-1-------8-8-8-8-6-6-6-6-4-4-4-4-3-333-|
Chorus (x4)


Comments