Temptations - Stand By Me Chords & Tabs

 

Stand By Me Chords & Tabs

Temptations Chords & Tabs

Version: 2 Type: Tab 0 ratings
1 star 2 stars 3 stars 4 stars 5 stars
comments

Stand By Me Tab

-----------------------------------------------------------------------
-----------------------------------------------------------------------
-----------------------------------------------------------------------
-----------------------------------------------------------------------
-0-4-5-5-0-4-5-5-5-4-2-2-0-2-2-2-0-------2-0-0-0-4-5-5-----------------
-----------------------------------3-3-3-------------------------------


[ Tab from: http://www.guitartabs.cc/tabs/t/temptations/stand_by_me_tab_ver_2.html ]
-----------------------------------------------------------------------
-----------------------------------------------------------------------
-----------------------------------------------------------------------
-----------------------------------------------------------------------
-0-4-5-5-5-4-2-2-0-2-2-2-0-------2-0-0-0-4-5-5-------------------------
---------------------------3-3-3---------------------------------------


Repeat over and over

This is the basic fingerings for this song

Comments