Temple Of The Dog - Say Hello To Heaven Chords & Tabs

 

Say Hello To Heaven Chords & Tabs

Temple Of The Dog Chords & Tabs

Version: 1 Type: Tab 0 ratings
1 star 2 stars 3 stars 4 stars 5 stars
comments

Say Hello To Heaven Tab

   
Song: "Say Hello to Heaven"
Artist: Temple of the Dog
  Lyrics and Music by Chris Cornell
Album: Temple of the Dog

Intro, Verse, and Chorus tabbed by Mark van 't Zet (tmvtzet@cs.vu.nl)
Solo tabbed by AJ Minich (Ajminich@hotmail.com)

Long live Seattle.

USED CHORDS

 Name      eadgbe

 Am7       x02213
 B         x24432
 Bb6       x13033
 C         x32010
 C7        x32310
 Cadd9     x32033
 D         xx0232
 Em        022000
 Em7       022033
 Em7/A     x02033
 F         133211
 G         320033
 G(barred) 355433
 G#        466544
 ..and finally the hardest chord:
 N.C.      xxxxxx


INTRO

 ------3------3------3------3----------0-------------0------
 ----3------3------3------3----------3---3---------3---3----
 ----------------------------------0-------0-----0-------0--
 --3------3------2------2-----------------------------------
 --------------------------------1-------------0------------
 -----------------------------------------------------------

 ------3------3--------0----------0-------0----------0------
 ----3------3--------3---3-------------------------3---3----
 ------------------0-------0----0-------0--------0-------0--
 -----------------------------------------------------------
 --3------3------2------------------------------------------
 -----------------------------1-------1--------0------------


RIFF

 F F G# G# G


VERSE 1

 G             Am7        C            Em
 Please mother mercy take ...
         G           Am7           C             F
 And the long winded curses I ...
 G           Am7        C              Em
 Words never listen and ...
 G                     Am7          C               F        
 Now I'm warm from the candle ...


PRE-CHORUS 1

 He came from an island and he ...

 -------3------3------3------3---------0-------------0------
 -----3------3------3------3---------3---3---------3---3----
 ----------------------------------0-------0-----0-------0--
 -----------------------------------------------------------
 ---3------3------2------2----------------------------------
 --------------------------------1-------------0------------
    G                  Bb6                  Em7/A              Cadd9     
 He hurt so bad like a soul breaking but ...

 
CHORUS

 (N.C.)       G       D       C7
 Say hello to heaven...
 (N.C.)       G       D       C7
 Say hello to heaven, ...


RIFF


VERSE 2

 G          Am7   C           Em
 New like a baby, lost ...
 G                Am7                C                    F
 The sky was your playground but ...
 G        Am7         C                   Em
 Poor stargazer she's got ...
 G             Am7                    C                          F
 Smooth like a whisper she knows ...


PRE-CHORUS 2 (play tab/chrds of pre-chorus1)

 Now it seems like too much love ....
 ..oh..


CHORUS


GUITAR SOLO (3:35)
[ Tab from: http://www.guitartabs.cc/tabs/t/temple_of_the_dog/say_hello_to_heaven_tab.html ]
 ----------------------------------------------
 ----------------------------------------------
 --------12-12----14p12--14b16-/16--14/16-16---
 -12h14----------------------------------------
 ----------------------------------------------
 ----------------------------------------------

 --------------------------------------------------------
 ----15--------15--------15--------15--------------15-15-
 ------14b16-----14b16-----14b16-----14b16---------------
 --------------------------------------------------------
 --------------------------------------------------------
 --------------------------------------------------------

 --15p12--------------------------15p12--------------------------
 --------15p12--------------------------15p12--------------------
 --------------14p12-12-12-12-12--------------14p12-12-12-12-12--
 ----------------------------------------------------------------
 ----------------------------------------------------------------
 ----------------------------------------------------------------

 -------------------------------------------------------
 -------------------------------------------------------
 --14b16r----14b16-14b16-14b16-14b16---14h16p14----14---
 -----------------------------------------------17------
 -------------------------------------------------------
 -------------------------------------------------------

 ----------------------------15----15--15--15--17b19-17b19--
 --/15--15-17-15-17-15-15h17-------------17-----------------
 -----------------------------------------------------------
 -----------------------------------------------------------
 -----------------------------------------------------------
 -----------------------------------------------------------

 --17b19-17b19-17b19-17b19-15~----12h15p12---------------------
 -------------------------------------------15h17p15--12h15p12-
 --------------------------------------------------------------
 --------------------------------------------------------------
 --------------------------------------------------------------
 --------------------------------------------------------------

 --------------------------------------------------------
 --------------------------------------------------------
 --14h16p14-12-----14b16~~~~--14b16-14b16-14b16r-14~~~---
 --------------------------------------------------------
 --------------------------------------------------------
 --------------------------------------------------------

 -----------15-15-15----15-15-15-
 ---/15-17-----------17----------
 --------------------------------
 --------------------------------
 --------------------------------
 --------------------------------

 ----------15----------15----------15----------15\----
 -17-15-17----17-15-17----17-15-17----15-17-----------
 -----------------------------------------------------
 -----------------------------------------------------
 -----------------------------------------------------
 -----------------------------------------------------

 --------------------------------------------------15-------
 ---14b16-14--14b16-14b16-14b16r-12----------15-17----------
 -----------------------------------------------------------
 -----------------------------------------------------------
 -----------------------------------------------------------
 -----------------------------------------------------------

RIFF 


VERSE 3
 G       Am7                   C              Em
 I never wanted to write ....
            G        Am7        C                  F
 With these pages of phrases ...
      G            Am7          C          Em 
 So I blow out the candle ...
           G                       Bb6 
 Since you can't say to me how ...
         B                         C
 There's just one ....


CHORUS


RIFF 3x


OUTRO 

 (play pre-chorus tab, followed by a raked Em7 chord)
Comments