Temple Of The Dog - Say Hello To Heaven Chords & Tabs

 

Say Hello To Heaven Chords & Tabs

Temple Of The Dog Chords & Tabs

Version: 1 Type: Bass Tab 0 ratings
1 star 2 stars 3 stars 4 stars 5 stars
comments

Say Hello To Heaven Bass Tab

Say Hello to Heaven 
Totd

Intro
|---------------------------------------------------|
|---------------------------------------------------|
|---------------------------------------------------|
|-1-1-1/4-4-4/3-33-3-33--1-1-1/4-4-4/3-1-1-1/4-4-4/-|

Verse(2X)
|-------------------|
|-------------------|
|-----3--------3----|
|-3-5---0--3-5---1--|

Pre-Chorus
|--------------------------------|
|--------------------------------|
|-3-3-33-2-2-222-----------------|
|----------------1-1-11-0-0-000--|

|----------------------------------------------------|
|----------------------------------------------------|
|----------------------------------------------------|
|-3-33-3-333-6-66-6-666-5-55-5-555-8-88-8-88-8-88-8/-|

Chorus
|-------------------|
|-------------------|
|-----5-3-333-33-3--|
|-0-3---------------|

Play last line of intro
then verse
then pre-chorus
then chorus (4x)
[ Tab from: http://www.guitartabs.cc/tabs/t/temple_of_the_dog/say_hello_to_heaven_btab.html ]
Solo (2x)
|-----------------------------------------------|
|-----------------------------------------------|
|-----------------------------------------------|
|-0-00-0-000-3-33-3-333-/8-88-8-888-8-88-8-888--|

|-------------------------------------------------|
|-------------------------------------------------|
|-------------------------------------------------|
|-0-00-0-000-3-33-3-333-/8-88-8-888-1-1-1/4-4-4/3-|

|------------------------------------------------------|
|------------------------------------------------------|
|-------------------------------------------------5-3*-|
|--3-33-3-333-6-666-6-666-5-55-5-555-8-888-8-888-3-----|

Last line of intro
Verse 1 and a half times (play through notes)

Pre-chorus (variation)
|-----------------------------------------------------|
|-----------------------------------------------------|
|-------------1-111-1-1111-2-222-22-2222-3-333-3333---|
|-3-33-3-3333-----------------------------------------|

Chorus (play trough notes) 4x
Intro

Comments