Temple Of The Dog - Reach Down Chords & Tabs

 

Reach Down Chords & Tabs

Temple Of The Dog Chords & Tabs

Version: 1 Type: Bass Tab 0 ratings
1 star 2 stars 3 stars 4 stars 5 stars
comments

Reach Down Bass Tab

Temple Of The Dog
Reach Down
Tabbed by Fábio R.
Normal Tuning (EADG)

Main Riff/Chorus

|--------------|
|--------------|
|--------------|
|--0-3-5-3-0-3-|

Pre-Chorus
[ Tab from: http://www.guitartabs.cc/tabs/t/temple_of_the_dog/reach_down_btab.html ]
|----------------------------------------------|
|----------------------------------------------|
|-3-3-3---------------3-3-3-3------------------|
|-------5-5-5-5-0-0-0---------5-5-5-3--5-5-5-3-|

Guitar Solo Part

|----------------------|
|----------------------|
|-5-7------------------|
|-----5-7~~~-5~~~-3~~~-| Jeff play a lot of variation on this base, i will don´t put then here, 

use your mind and create some.

Have Fun!
for comments send to: dragonz@terra.com.br

Comments