Temple Of The Dog - Hunger Strike Chords & Tabs

 

Hunger Strike Chords & Tabs

Temple Of The Dog Chords & Tabs

Version: 3 Type: Tab 0 ratings
1 star 2 stars 3 stars 4 stars 5 stars
comments

Hunger Strike Tab

this is pretty much the whole song.
This is my first song,so don\'t go hard on me.                       

[ Tab from: http://www.guitartabs.cc/tabs/t/temple_of_the_dog/hunger_strike_tab_ver_3.html ]
------------------------------------------
-----0---3-----3--------0---3-----3-------
---0---0---0----------0---0---0-----------
-0-----------0------2-----------2---------
------------------------------------------
------------------------------------------         

play 4x       
------------------
------------------
------------------
------------4b----
0-2--0-2----------
0-2--0-2----------

Have fun with it!
Comments