Temple Of The Dog - Hunger Strike Chords & Tabs

 

Hunger Strike Chords & Tabs

Temple Of The Dog Chords & Tabs

Version: 2 Type: Bass Tab 0 ratings
1 star 2 stars 3 stars 4 stars 5 stars
comments

Hunger Strike Bass Tab

   
Hunger Strike
by Temple of the Dog
transcribed by Travis Higgins
travis@primenet.com
http://www.primenet.com/~travis/bass.html


Dropped D tuning  (D,A,D,G)

Bass doesn't come in until the second verse
                    
|-----------------------------|----------------------|-
|---------12/14\---10-----10--|--9-----9--10-----10--|-
|--10-------------------------|----------------------|-
|-----------------------------|----------------------|-
       

    
--------------------------|----------------------------|-
---------------10-----10--|--9-----9--9--10-----10/12--|-
10-----10--10-------------|----------------------------|-
--------------------------|----------------------------|-
     

    
--------------------------|-------------------------|-
9-----12/14\---10-----10--|--9-----9--9--10-----10--|-
--------------------------|-------------------------|-
--------------------------|-------------------------|-
      

    
--------------------------|----------------------------|-
---------------10-----10--|--9-----9--9--10-----10/12--|-
10-----10--10-------------|----------------------------|-
--------------------------|----------------------------|-
   

      
----------------------------------|-
-------------------10-----10--10--|-
10-----10--10--10-----------------|-
----------------------------------|-
  

       
-------------------------------|----------------------------|-
9-----9--9--10-----10--10--10--|-------------10-----10--10--|-
-------------------------------|--10-----10-----------------|-
-------------------------------|----------------------------|-
      

        
--------------------------|--------------------------------|-
9-----9--9--10-----10/12--|--------------------------------|-
--------------------------|--10-----10--10--12-----12--12--|-
--------------------------|--------------------------------|-
            

         
----------------------------------|-
----------------------------------|-
14-----14--14--15--15--15--15--15\|-
----------------------------------|-
      

Chorus   
-----------------------------------|-
-----------------------------------|-
-10-----10--10--12-----12--12--12--|-
-----------------------------------|-
           

           
--------------------------------------|-
--------------------------------------|-
14-----14--14--14--15--15--15--15--15\|-
--------------------------------------|-
          

         
------------------------------|------------------------------------|-
------------------------------|------------------------------------|-
10-----10--10--12-----12--12--|--14-----14--14--15-----15--14--12--|-
------------------------------|------------------------------------|-
          
[ Tab from: http://www.guitartabs.cc/tabs/t/temple_of_the_dog/hunger_strike_btab_ver_2.html ]
            
------------------------------|------------------------------------|-
------------------------------|------------------------------------|-
10-----10--10--12-----12--12--|--14--14--14--14--14--14--15-----15\|-
------------------------------|------------------------------------|-
       

       
------------------------------|-
------------------------------|-
10-----10--10--12-----12--12--|-
------------------------------|-
         

        
---------------------------------------------|-
---------------------------------------------|-
14--14--14--14--14--15--15--15--15--15--15\--|-
---------------------------------------------|-
         

Fill A                                         (2 times)
||--------------------------|------------------------||-
||*--------------2--------2/|--------------2--------*||-
||*-------------------------|-----------------------*||-
||---0--2--0--2-------------|--0--2--0--2------------||-
               

                  
-----------------------|-
------------2--------2/|-
-----------------------|-
0--2--0--2-------------|-
              


This is played twice.  The second time through it is the 
chorus part.  It is also played again for the chorus at
the end of the song.
||------------------------------------------|-
||*-----------------------------------------|-
||*-----------------------------------------|-
||---5--5--5--5--5--5--7--7--7--7--7--7--7--|-


          
------------------------------------------------|-
------------------------------------------------|-
------------------------------------------------|-
9--9--9--9--9--9--9--9--9--9--9--9--9--9--9--9--|-
         

      
---------------------------------------------------|-
---------------------------------------------------|-
---------------------------------------------------|-
5--5--5--5--5-----5-----10--10--10--10--10-----10--|-
         

                                        (2 times)
-------------------------------------------------||
------------------------------------------------*||
------------------------------------------------*||
9--9--9--9--9-----9-----9--9--9--9--9-----9--9---||
             

Then play Fill A, then play the lines above for the chorus and outro


==========================================================================
==        Created with a shareware version of the BUCKET 'O TAB         ==
==               tablature creation software for Windows                ==
==                        For more information:                         ==
==                       email: gse@ocsystems.com                       ==
==   US Mail: The Bucket, 3176-B5 Summit Square Dr., Oakton, VA 22124   ==
==========================================================================
Comments