Temple Of The Dog - Four Walled World Chords & Tabs

 

Four Walled World Chords & Tabs

Temple Of The Dog Chords & Tabs

Version: 2 Type: Bass Tab 0 ratings
1 star 2 stars 3 stars 4 stars 5 stars
comments

Four Walled World Bass Tab

Temple Of The Dog
Four Walled World
Tabbed by Fábio R.
Normal Tuning (EADG)

Main Riff

|---------|   
|---------|
|-5-3-2---|
|-------3-|

Main Riff Variation

|---------|
|-----5---|
|-5-3---1-|
|---------|

Chorus

|---------------|
|---------------|
|---------------|
|-0-0-0-0-0-3-5-|3x then do this

|-------------------|
|-------------------|
|---------------5---|
|-0-0-0-0-0-3-5---3-|

End
[ Tab from: http://www.guitartabs.cc/tabs/t/temple_of_the_dog/four_walled_world_btab_ver_2.html ]
|-------------------------------------------------|
|-------------------------------------------------|
|-2-2-2-2-2-2-2-2-2-2-2-2-5-5-5-5-5-5-5-5-5-5-5-5-|
|-------------------------------------------------|

Outro 

|-------------------------------------------------|
|-------------------------------------------------|
|-2-2-2-2-2-2-2-2-2-2-2-2-5-5-5-5-5-5-4-4-4-4-4-4-|
|-------------------------------------------------|

Have Fun!
for comments send to: dragonz@terra.com.br
Comments